Song name
# A B C D E F G H I J K L M N O P Q R S T U V W X Y Z

Candy Claws - Snowdrift Wish chords

Highlighted       Show chord diagrams
G                           C
Snowdrift I give this xmas wish
It's all that I have 
                 G
It's all that I have 


(G)
Warm in the dark
               C
Bright window star
I'm small when I'm with you
            G
Wish in my heart


(G)                Em
I saw it all come down
                           G
The lights, the lights at night
                 Em
It calls me all around
                   D
On high on high inside
C#  Am   D        Em   C G
I   sing red and green
Am   D        Em   C G
sing red and green

bridge:
G|------------|
D|-2-0--------|
A|-----0-2----|
E|---------3--|

G
Snowdrift caught up
              C
Slow in soft wonder
Holiday feelings
             G
Tree colors love


Storm white outside
            C
Chorus I'm trying
Small when I see it
            G
Wish in my heart


(G)                Em
I saw it all come down
                           G
The lights, the lights at night
                 Em
It calls me all around
                   D
On high on high inside
C#  Am   D        Em   C G
I   sing red and green
Am   D        Em   C G
sing red and green


solo:
G|--------------------|--------------|---------|-------------|---------------|
D|-2-0----------------|--------------|-----7---|-------------|-----5-7-7-9-5-|
A|-----0-2------2-5-5-|-7/5--7--7/5--|-5-7---7-|-7/5--7--7/5-|-5-7-----------|
E|---------3--3-------|--------------|---------|-------------|---------------|




("I saw it all come down" solo)

e|--------------|---------------|--------------|-------------------|
B|-3-5-/8-5-3-0-|-5-5-------3-3-|-3-5-/8-5-3-0-|-5-5-------3-3--2--|
G|--------------|------4-4------|--------------|------4-4----------|
Tap to rate this tab
 
# A B C D E F G H I J K L M N O P Q R S T U V W X Y Z