Song name
# A B C D E F G H I J K L M N O P Q R S T U V W X Y Z

Canned Heat - Going Up The Country tab

E----------13----9/10---------------9/10---|
B-11/13h15------------13-------11----------|
G------------------------10h12-------------|
D------------------------------------------|
A------------------------------------------|
E------------------------------------------|

|-9/10---------------9/10---------------9/10--13-13--|
|------13-------11--------13-------------------------|
|---------10h12--------------10h12-------------------|
|----------------------------------------------------|
|----------------------------------------------------|
|----------------------------------------------------|

|-9/10---------------|
|------13-------11---|
|---------10h12------|
|--------------------|
|--------------------|
|--------------------|
Tap to rate this tab
# A B C D E F G H I J K L M N O P Q R S T U V W X Y Z