Song name
# A B C D E F G H I J K L M N O P Q R S T U V W X Y Z

Cannibal Corpse - Chambers Of Blood tab

-------------------------------------------------------------------------------
		  CHAMBERS OF BLOOD - Cannibal Corpse
-------------------------------------------------------------------------------
Tabbed by: JeffoBazoni
Email: cannedreviews@gmail.com

Tuning: Bb

|----------------------------------------------------------|
|----------------------------------------------------------|
|----------------------------------------------------------|
|--------------------------------3*------3-----------------|
|4-------4---6---4-----------------------4-----------------|
|----3---------------3---00003333----00001---0-0-3h6h3-0---|
                         ........    ....    . .

|--------------------------------------------------|
|--------------------------------------------------|
|--------------------------------------------------|
|--------------------------------3--------3--------|
|4-------4---6---4---------------4--------4--------|
|----3---------------3---00000000-00000000-00000000|
                         ........ ........ ........

|----------------------------------------------------------|
|----------------------------------------------------------|
|----------------------------------------------------------|
|--------------------------------3*------3-----------------|
|4-------4---6---4-----------------------4-----------------|
|----3---------------3---00003333----00001---0-0-3h6h3-0---|
                         ........    ....    . .

|------------------------------------------------|
|------------------------------------------------|
|------------------------------------------------|
|------------------------------------------------|
|4-------4---6---4-------447777774477777744777777|
|----3---------------3---------------------------|
                         ........................

(repeat)
Tap to rate this tab
 
# A B C D E F G H I J K L M N O P Q R S T U V W X Y Z