Song name
# A B C D E F G H I J K L M N O P Q R S T U V W X Y Z

Cannibal Corpse - Disfigured tab

I hate writing tabs, but finding every tab version of this song to be dead wrong I was
to listen section by section and piece this together.

It is NOT complete yet as I only started figuring it out two days ago.
I will however complete the song in time.
Additionally, I can't even play it up to speed myself so I suggest starting slow and
comfortable with the patterns. Cannibal corpse is no joke!

Please, if you have any corrections or additional sections feel free to message me at
:)

Tuning: C standard

i.e. tune the low E down to C and tune the others accordingly as though it were standard.

Please enjoy!

(Intro riff: Section 1) Play muted, alternate picking style. Play (2x)
e|----------------------------------------------------------------------------|
B|----------------------------------------------------------------------------|
G|----------------------------------------------------------------------------|
D|----------------------------------------------------------------------------|
A|--------------10--------------13-----------10-----------7-------------------|
E|------0---7----------0---10--------0---7--------0---3-----------------------|

e|---------------------------------------------------------------------------|
B|---------------------------------------------------------------------------|
G|---------------------------------------------------------------------------|
D|---------------------------------------------------------------------------|
A|--------------10-------------13------------14------------14----------------|
E|------0---7---------0---10--------0---10--------0---10---------------------|

(Intro riff: Section 2) Play (2x)
e|---------------------------------------------------------------------------|
B|---------------------------------------------------------------------------|
G|---------------------------------------------------------------------------|
D|---------------------------------------------------------------------------|
A|---------------16------------14------------16------------14----------------|
E|------0---12--------0---12--------0---12--------0---15---------------------|
                                                       ^Ring finger
e|---------------------------------------------------------------------------|
B|---------------------------------------------------------------------------|
G|---------------------------------------------------------------------------|
D|---------------------------------------------------------------------------|
A|---------------16------------14------------16------------16----------------|
E|------0---12--------0---12--------0---12--------0---12---------------------|

(Intro Riff: Section 1) Play (1x)
e|----------------------------------------------------------------------------|
B|----------------------------------------------------------------------------|
G|----------------------------------------------------------------------------|
D|----------------------------------------------------------------------------|
A|--------------10--------------13-----------10-----------7-------------------|
E|------0---7----------0---10--------0---7--------0---3-----------------------|

e|---------------------------------------------------------------------------|
B|---------------------------------------------------------------------------|
G|---------------------------------------------------------------------------|
D|---------------------------------------------------------------------------|
A|--------------10-------------13------------14------------14----------------|
E|------0---7---------0---10--------0---10--------0---10---------------------|

(Bridge riff) Listen to the song itself for the groove. Play 16x overall
e|----------------------------------------------------------------------------|
B|----------------------------------------------------------------------------|
G|----------------------------------------------------------------------------|
D|----------------------------------------------------------------------------|
A|------7-----------7-----------7---------------------------------------------|
E|----------3---3-------3---3-------3---3-------------------------------------|ETC!!

(intro verse riff: section 1) try to individually finger notes. Don't hold your fingers
a chord, it kills the staccato feel.
Your hand should only move to 2 positions,with index resting on fifth and moving up to eighth.

Definitely start slow with this one.

Intro verse riff (Section 1a) Play (2x)
e|---------------------------------------------------------------------------|
B|---------------------------------------------------------------------------|
G|---------------------------------------------------------------------------|
D|------------5-----------------------------------5--------8---------5-------|
A|---7-----------------7-----------------7-----------------------------------|
E|------6--7-----7--6-----6--7--0--0--0-----6--7-----7--6-----10--9-----7--6-|

Intro verse riff (section 1b) play (2x) Same rules apply excluding positioning. Same pattern!
e|---------------------------------------------------------------------------|
B|---------------------------------------------------------------------------|
G|---------------------------------------------------------------------------|
D|-------------8-------------------------------------8------11------8--------|
A|---10-------------------10------------------10-----------------------------|
E|------9--10-----10--9------9--10--0--0--0-----9-10---10-9---13-12---10--9--|

Play Intro verse riff section 1a, twice more. Then back into the Bridge.
On the last 6 beats of the bridge bridge play a muted power chord on third fret.

Then this: You don't need to start at the third fret, but it gives the slides more range 
my opinion.

 (Main riff 1) Play (2x)
e|-------------------------------------------------------------------------|
B|-------------------------------------------------------------------------|
G|-------------------------------------------------------------------------|
D|-------5/9----------------------------5/9--------------------------------|
A|---5/9-3/7-5/9-----------7--------5/9-3/7-5/9----------10----------------|
E|---3/7-----3/7--0--0--0-----0--0--3/7-----3/7--0--0--0-----0--0----------|

D|-------5/9----------------------------5/9------12\10-12\10-12\10------|
A|---5/9-3/7-5/9-----------7--------5/9-3/7-5/9--10\8--10\8--10\8-------|
E|---3/7-----3/7--0--0--0-----0--0--3/7-----3/7-------------------------|


OK, that's enough for today, I know I'm missing anything and everything that follows
riff and am probably wrong or whatever. I'll make alterations once I make progress with the
Hope this helps some folks :)
Tap to rate this tab
# A B C D E F G H I J K L M N O P Q R S T U V W X Y Z