Cannibal Corpse - Shatter Their Bones tab

cannibal corpse
shatter their bones
off of evisceration plague
tabber;ben chaffins
i have found 2 ways for this song to work
on a six string guitar tune it to a#
on a seven string guitar tune to drop b
both ways work
putting in standard so its easier to read
please note that not all of the song is here so please rate it by what is
here thank you

e--------------------------------------------------------------------------|
b--------------------------------------------------------------------------|
g--------------------------------------------------------------------------|
d--------------------------------------------------------------------------|
a-5-4-8-6-0-0-0-5-000000-8-0-8-0-7-0-7-0-0-6-000000-5-4-8-6-0-0-0-5-000000-|
e-3-2-6---------------------------------------------3-2-6------------------|

e--------------------------------------------------------------------------|
b--------------------------------------------------------------------------|
g--------------------------------------------------------------------------|
d-------------7-8-6-7-5-6--------------------------------------------------|
a-8-0-8-0-7-0-------------7-8-6-7-----------666-0-0-5-000000-8-0-8-0-7-0-7-|
e---------------------------------888777444--------------------------------|

e----------------------------------------------------------------------------|
b----------------------------------------------------------------------------|
g----------------------------------------------------------------------------|
d-------------------------------------------------4-3-0----------------------|
a-0-0-0-6-0000-5-4-8-6-0-0-0-5-000000-8-0-8-0-7-0-------5-4-0-6-3-0-2-333222-|
e--------------3-2-6---------------------------------------------------------|

e---------------------------------|
b---------------------------------|
g---------------------------------|
d---------------------------------|
a-----666-2-0-1-0-2-0-1-0-2-0-1-0-|
e-444-----------------------------|

 this here below is played 2 times
e---------------------------------|
b---------------------------------|
g-----------------6-3-0-3-2-------|
d---------------------------------|
a-5-0-4-0-5-0-4-0-----------0-3-6-|
e---------------------------------|

e-----------------------------------------------------------------------|
b-----------------------------------------------------------------------|
g-----------------------------------------------------------------------|
d-----------------------------------------------------------------------|
a--------------6666666699999999-----------------------------------------|
e-333333333333------------------666666666666-333333333333-7777777777777-|

e----------------------------------------------------------------------------|
b----------------------------------------------------------------------------|
g----------------------------------------------------------------------------|
d----------------------------------------------------------------------------|
a----------------------------------555555588888888---0-3-0-6-5-0-5-8-7-0-1-3-|
e-66666666664444444444443333333333-----------------4-------------------------|

e-------------------------------------------------------|
b-------------------------------------------------------|
g-------------------------------------------------------|
d-------------------------------------------------------|
a-1-0-3-6-----------------------------------------------|
e---------333333333333777777777777666666664444443333333-|

im sorry but that is all i have like unnatural im still working on it
Tap to rate this tab
 
# A B C D E F G H I J K L M N O P Q R S T U V W X Y Z