Guitaretab - guitar tabs
Song name
# A B C D E F G H I J K L M N O P Q R S T U V W X Y Z

Cannibal Corpse - Zero The Hero tab

SONG- Zero The Hero
ALBUM: Hammer Smashed face & Tomb Of The Mutilated
BAND- Cannibal Corpse
ORIGIONALLY BY- Black Sabbath
TABBER- Cyanide-Assasin 
TUNING- Detune Half Step


PM- Palm Mute
/- Slide
~-Vibrato


OPENING RIFF
  |x1         |x3          |x4
Eb|-----------|------------|-------------------|
Bb|-----------|------------|-------------------|
Gb|-----------|------------|-------------------|
Db|--4-4-5--4-|----4-4-5/4-|--4-6-67/6--------|
Ab|--4-4-3--2-|-2--4-4-3/2-|--4-6-65/4--------|
Eb|--2-2-3--2-|-0--2-2-3/2-|--2-4-45/4--------|
   
MAIN RIFF
x2
Eb|----------------------------------------------|
Bb|----------------------------------------------|
Gb|----------------------------------------------|
Db|----------------------------------------------|
Ab|----------------------0-----------------------|
Eb|-0-1-22--0-1-22-0-1-2---2-0-1-----------------|
PM |--------------------|  |-----|

(Then Play The Main Riff 8 More Time With These On Guitar 2)
(Play One Chord Every time Guitar One Starts The Main Riff)
MAIN BACKING RIFF
x2
Eb|---------------------------------------|
Bb|---------------------------------------|
Gb|---------------------------------------|
Db|---4--------6--------7--------5--------|
Ab|---4--------6--------7--------3--------|
Eb|---2--------4--------5--------3--------|

FIG 3.
x8
Eb-|---------------------------------|  
Bb-|---------------------------------|    
Gb-|---------------------------------|
Db-|---------------------------------|
Ab-|---------------------------------|
Eb-|-0-1-2---0-1-2---0-1-2-5-0-1-2---|
        ~~~     ~~~             ~~~ 

CHORUS
x5
Eb-|------------------------------------------------------------| 
Bb-|------------------------------------------------------------|    
Gb-|-----------------------------------------6---4--------------|   
Db-|-----------------------------------------6---4---2--4---6---|    
Ab-|-------------------------2-----------32--4---2---2--4---6---|
Eb-|-4-2-3-4---2-3-4---2-3-4---2-3-4-3-2-32--4---2---0--2---4---| 
 PM                                      ..
SOLO								 
Eb|-------------------------------------------------------|
Bb|----------10----10----10-12----------------------------|
Gb|---11~~~-----13----13-------11-11^~--------------------|
Db|-------------------------------------------------------|
Ab|-------------------------------------------------------|
Eb|-------------------------------------------------------|
[ Tab from: http://www.guitaretab.com/c/cannibal-corpse/2975.html ]
Eb|-------------------------------------------------------|
Bb|-------------------------------------------------------|
Gb|-------------------------------------------------------|
Db|-------------------------------------------------------|
Ab|---11^^^---11h12p11--9~---12-11-9---12-11-9------------|
Eb|-------------------------------------------------------|

Eb|-------------------------------------------------------|
Bb|-------------------------------------------------------|
Gb|-------------------------------------------------------|
Db|-------------------------9-----------------------------|
Ab|---12-11-9-11-12--11-12-----9-11^----------------------|
Eb|-------------------------------------------------------|

Eb|---------------------17-16-14-12-----------------------|
Bb|---14~--17-14-17/19---------------15-14-12^-12---------|
Gb|------------------------------------------------14-----|
Db|-------------------------------------------------------|
Ab|-------------------------------------------------------|
Eb|-------------------------------------------------------|
							 (Bend and release)
Eb|-------------------------------------------------------|
Bb|---12^-12---------------------17-(17)^-(17)p14---------|
Gb|-----------14~--13h14p13-11~---------------------------|
Db|-------------------------------------------------------|
Ab|-------------------------------------------------------|
Eb|-------------------------------------------------------|
	                                 |--play-8x-------|
Eb|---17-(17)^-(17)p14-------------------17-(17)^-(17)p14-|
Bb|---------------------17-(17)^-(17)p14------------------|
Gb|-------------------------------------------------------|
Db|-------------------------------------------------------|
Ab|-------------------------------------------------------|
Eb|-------------------------------------------------------|

Eb|-17-(17)^-(17)p14--------------------------------------|
Bb|-------------------17-(17)^-(17)p14--17-(17)^-(17)-14--|
Gb|-------------------------------------------------------|
Db|-------------------------------------------------------|
Ab|-------------------------------------------------------|
Eb|-------------------------------------------------------|

Eb|-------------------------------------------------------|
Bb|---17-(17)^-(17)-14-17-14-17/19~~----------------------|
Gb|-------------------------------------------------------|
Db|-------------------------------------------------------|
Ab|-------------------------------------------------------|
Eb|-------------------------------------------------------|
			
----------------
STRUCTURE
----------------
OPENING RIFF
MAIN RIFF
FIG 3.
CHORUS
MAIN RIFF
FIG 3.
CHORUS
MAIN RIFF (ONLY ONCE)
OPENING RIFF
|SOLO
|GUITAR 1: SOLO
|GUITAR 2: MAIN RIFF x10
|GUITAR 3: MAIN BACKING RIFF (AFTER Gtr 2 DOES x10)

FIG 3
CHORUS
MAIN RIFF (FADE OUT)






Related for Zero The Hero tab