Song name
# A B C D E F G H I J K L M N O P Q R S T U V W X Y Z

Cannibal Corpse - I Cum Blood tab

Band: Cannibal Corpse
Song: I Cum Blood
Album: Tomb of the Mutilated

Tuning Eb Ab Db Gb Bb Eb

Riff 1
|-----------------------------------------|
|-----------------------------------------|
|-----------------------------------------|
|-----------------------------------------|
|-----------------------------------------|
|-6666-3333-4444-1111-6666-3333-1111-0000-|

|---------------------------------------|
|---------------------------------------|
|---------------------------------------|
|---------------------------------------|
|------------------------------------2--|
|-6666-3333-4444-1111-6666-1111-1111-0--|


Riff 2
|-------------------------------------|
|-------------------------------------|
|-------------------------------------|
|-------------------------------------|
|-7---8---4---5---7---8---5---4---3---|
|-5p0-6p0-2p0-3p0-5p0-6p0-3p0-2p0-1p0-|


Riff 3
|-----------------------------------------------------|
|-----------------------------------------------------|
|-----------------------------------------------------|
|-------5/6\5--------3/4\3--------5/6\5--------3/4\3--|
|-2-3-2-5/6\5--2-3-2-3/4\3--2-3-2-5/6\5--2-3-2-3/4\3--|
|-0-1-0-3/4\3--0-1-0-1/2\1--0-1-0-3/4\3--0-1-0-1/2\1--|
  . . .        . . .        . . .        . . .


Riff 4
|--------------------------|
|--------------------------|
|--------------------------|
|--------------------------|
|-8-5---3---4--8-5---3---4-|
|-6-3-0-1-0-2--6-3-0-1-0-2-|


Now go back and play:

Riff 3
Riff 4
Riff 3
Riff 4, then...


Riff 5
|-------------------------------|
|-------------------------------|
|-------------------------------| x3
|-------------------------------|
|-------------------------------|
|-6666-3333-0000-1111-0000-2222-|
  .... .... .... .... .... ....

|------------------------|
|------------------------|
|------------------------| x1
|------------------------|
|---------------------2--|
|-6666-3333-0000-1111-0--|
  .... .... .... ....

Now play riff 5 again, except this time only play each bar once.


Riff 6
|-------------------------------------------------------------|
|-------------------------------------------------------------|
|-------------------------------------------------------------|
|-----------3333-5555---------------------3333-4444-----------|
|------2222-----------4444-----------2222-----------3333------|
|-1111---------------------3333-1111---------------------2222-|


Now go back and play:

Riff 2
Riff 3
Riff 4, then...


Riff 7
|--------------------------|
|--------------------------|
|--------------------------|
|-------5---8--------5---8-|
|-8-5---3---6--8-5---3---6-|
|-6-3-0-3-0-6--6-3-0-3-0-6-|
  . . .   .    . . .   .

Now go back and play:

Riff 1
Riff 7
Riff 1
Riff 7
Riff 1, then...


Riff 8 - This is a bit like riff 2, but in tremelo picking style
|----------------------------------------------|
|----------------------------------------------|
|----------------------------------------------|
|----------------------------------------------| x3
|----------------------------------------------|
|-5555-6666-2222-3333-5555-6666-3333-2222-1111-|

After you have played the above bar 3 times, play the
following two bars through just once:
|----------------------------------------------|
|----------------------------------------------|
|----------------------------------------------|
|----------------------------------------------|
|----------------------------------------------|
|-5555-6666-2222-3333-5555-6666-3333-2222-1111-|

|----------------------------------------------|
|----------------------------------------------|
|----------------------------------------------|
|----------------------------------------------|
|----------------------------------------------|
|-3333-2222-1111-3333-2222-1111-3333-2222-1111-|



Riff 9
|-------------------------------------------------------------|
|-------------------------------------------------------------|
|-------------------------------------------------------------|
|-------------------------------------------------------------|
|-------------------------------------------------------------|
|-6666-5555-4444-5555-4444-3333-4444-3333-2222-3333-2222-1111-|

|-------------------------------------------------------------|
|-------------------------------------------------------------|
|-------------------------------------------------------------|
|-5555-4444-3333-5555-4444-3333-5555-4444-3333-5555-4444-3333-|
|-------------------------------------------------------------|
|-------------------------------------------------------------|

|-------------------------------------------------------------|
|-------------------------------------------------------------|
|-------------------------------------------------------------|
|-8888-7777-6666-7777-6666-5555-6666-5555-4444-5555-4444-3333-|
|-------------------------------------------------------------|
|-------------------------------------------------------------|

|-------------------------------------------------------------|
|-------------------------------------------------------------|
|-------------------------------------------------------------|
|-------------------------------------------------------------|
|-------------------------------------------------------------|
|-3333-2222-1111-3333-2222-1111-3333-2222-1111-3333-2222-1111-|

|-------------------------------------------------------------|
|-------------------------------------------------------------|
|-------------------------------------------------------------|
|-------------------------------------------------------------|
|-------------------------------------------------------------|
|-6666-5555-4444-5555-4444-3333-4444-3333-2222-3333-2222-1111-|


Now go back and play:

Riff 6
Riff 2 - (underneath solo), then...

Riff 10 - (played underneath solo also) - this is the same as
           riff 5 but uses triple picking instead:

|-------------------------|
|-------------------------|
|-------------------------| x3
|-------------------------|
|-------------------------|
|-666-333-000-111-000-222-|
  ... ... ... ... ... ...

|--------------------|
|--------------------|
|--------------------| x1
|--------------------|
|-----------------2--|
|-666-333-000-111-0--|
  ... ... ... ...
Tap to rate this tab
# A B C D E F G H I J K L M N O P Q R S T U V W X Y Z