Song name
# A B C D E F G H I J K L M N O P Q R S T U V W X Y Z

Cannibal Corpse - Make Them Suffer tab

Cannibal Corpse - Make Them Suffer (solo)
Off from the official tab book
Hope this sounds accurate, I've never tried it out =/


A#]-----6-9-6-------8-8/11\\\8----------]
F#]----------9-7--------------------8-9-]
C#]--------------8-9------------8-9-----]
G#]-------------------------------------]
D#]-------------------------------------]
A#]-------------------------------------]

A#]--------------------------------------------------]
F#]-11-9-8-8-9-11-9-------8/9-12-11-9/8-9-11/14-12-11]
C#]--------------------------------------------------]
G#]------------------11------------------------------]
D#]--------------------------------------------------]
A#]--------------------------------------------------]

A#]----------------------------------------------------]
F#]--11----11-12-14-12-11-12-12h-15--12----------12-14-]
C#]----------------------------------------------------]
G#]-------------------------------------15-12h/14------]
D#]----------------------------------------------------]
A#]----------------------------------------------------]
                                                 w/Bar
A#---------------------------------------------17~~~~~~(17)/]
F#-12-14-15-17-15-14----------14-15-16-------12-------------]
C#-------------------15-14-12--------------12---------------]
G#----------------------------------------------------------]
D#----------------------------------------------------------]
A#----------------------------------------------------------]

A#-/18~~~~~~~~~~~~~~~(18)\----------]
F#----------------------------------]
C#----------------------------------]Cont.
G#----------------------------------]
D#----------------------------------]
A#-------------------------1////////]

A#-------------------------------------------------]
F#-------------------------------------------------]
C#-------------------------------------------------]
G#-------------------------------13-15----14-15-17-]
D#-------------13-14----13-14-16-------16----------]
A#/10///////15-------16----------------------------]

A#-------------------------13-------------------------------------------]
F#-------14-15-17-15-14-17----17-15-17-15-14-15-14-17-15----------------]
C#-13--15-----------------------------------------------15~~~~~~~~~~~~~~] END
G#----------------------------------------------------------------------]
D#----------------------------------------------------------------------]
A#----------------------------------------------------------------------]
Tap to rate this tab
# A B C D E F G H I J K L M N O P Q R S T U V W X Y Z