Song name
# A B C D E F G H I J K L M N O P Q R S T U V W X Y Z

Cannibal Corpse - Dismembered And Molested tab

Band:  Cannibal Corpse
Album: Gallery Of Suicide
Song:  Dismembered And Molested



.  - palm mute           /  - slide up to
\  - slide down to       ~  - vibrato
h  - hammer on           b  - Bend
p  - pull off            Suffixes for bend
t  - tap                 f  - full bend    h - half bend
ph - pinched harmonic    q  - quarter bend t - tap bend
~  - vibrato bend        ^  - Hold bend    r release bend

Tuning 6 half steps down: Bb-Eb-Ab-Db-F-Bb

Guitar 1 = left  channel
Guitar 2 = right channel

RIFF 1 / INTRO (0:00) both gtr.
|-------------------------------------||
|-------------------------------------||
|-------------------------------------||
|-------------------------------------||
|-6--3--3--6--3--3--6--3--3--6--3--3--||
|-4--1--1--4--1--1--4--1--1--4--1--1--||

RIFF 2 (0:04) gtr. 1
|-------------------------------------------------||
|-------------------------------------------------||
|-.--.--.--.--.--.--.--.--.--.--.--.--.--.--.--.--||
|-3--3--3--3--3--3--3--3--3--3--3--3--3--3--3--3--||
|-2--2--2--2--2--2--2--2--2--2--2--2--2--2--2--2--||
|-1--1--1--1--1--1--1--1--1--1--1--1--1--1--1--1--||

RIFF 2 (0:04) gtr. 2
|--2times-|------3-times-----|------------2-times-----------------||
|---------|------------------|------------------------------------||
|---------|------------------|------------------------------------||
|-6t0h3p0-|-12t3h6p3-9t3h6p3-|-12t3h6p3-15t3h6p3-12t3h6p3-9t3h6p3-||
|---------|------------------|------------------------------------||
|---------|------------------|------------------------------------||

RIFF 3 (0:09) both gtr.
|-----------------------------------------------------------------||
|--------------------------------------9----------------------7-7-||
|--------------------------------------6----------------------4-4-||
|-000000000000-7h10p7-6---000000000000-6---00000000-0h3h6p3p0-4-4-||
|-----------------------------------------------------------------||
|-----------------------------------------------------------------||
  ............            ............     ........
RIFF 4a (0:21) both gtr.
|-------------------------------------------------|
|-------------------------------------------------|
|-------------------------------------------------|
|-5-------------------------3------5------8-------|
|-3-000000000000-3p1p0-000001-000003-000006-00000-|
|-------------------------------------------------|
    ............       .....  .....  .....  .....

 -------------------------------------------------||
 -------------------------------------------------||
 -----------------------------------------11------||
 -5-------------------------3------5------9-------||
 -3-000000000000-3p1p0-000001-000003-000009-00000-||
 -------------------------------------------------||
    ............       .....  .....  .....  .....


again RIFF 2 (0:31)
again RIFF 3 (0:36)


RIFF 4b (0:48) both gtr.
|-------------------------------------------------|
|-------------------------------------------------|
|-------------------------------------------------|
|-5-------------------------3------5------8-------|
|-3-000000000000-3p1p0-000001-000003-000006-00000-|
|-------------------------------------------------|
    ............       .....  .....  .....  .....

 ------------------------------------------||
 ------------------------------------------||
 ------------------------------------------||
 -5-------------------------3------5-------||
 -3-000000000000-3p1p0-000001-000003-00000-||
 ------------------------------------------||
    ............       .....  .....  .....

RIFF 5 (0:53) gtr. 1
|--------------------------2-times--------------------------------||
|-----------------------------------------------------------------||
|-------444444555555----44------------444444555555----------------||
|-444444------------6666--333366444444------------9p66600-6p33300-||
|-----------------------------------------------------------------||
|-----------------------------------------------------------------||
  ...............................................................

RIFF 5 (0:53) gtr. 2
|------------------------------------------------------------------|
|------------------------------------------------------------------|
|-------777777888888----77------------777777888888-----------------|
|-777777------------9999--666699777777------------9p66600-9p66600--|
|------------------------------------------------------------------|
|------------------------------------------------------------------|
  ...............................................................

 -----------------------------------------------------------------||
 -----------------------------------------------------------------||
 -------777777888888----77------------777777888888----------------||
 -777777------------9999--666699777777------------12p99900-9p66600||
 -----------------------------------------------------------------||
 -----------------------------------------------------------------||
  ................................................................


again RIFF 2 (1:02)


RIFF6 (1:07) gtr. 1
|-----4-times------|-------------2-times----------------|
|------------------|------------------------------------|
|-12t3h6p3-9t3h6p3-|-12t3h6p3-15t3h6p3-12t3h6p3-9t3h6p3-|
|------------------|------------------------------------|
|------------------|------------------------------------|
|------------------|------------------------------------|

RIFF 6 continue
|--4-times-|-----2-times------|--2-times-||
|----------|------------------|----------||
|----------|------------------|----------||
|----------|------------------|----------||
|-77777777-|-1010101010101010-|-44444444-||
|----------|------------------|----------||


RIFF 6 (1:07) gtr. 2
|------4-times------|-------------2-times-----------------|
|-------------------|-------------------------------------|
|-15t6h9p6-12t6h9p6-|-15t6h9p6-18t6h9p6-15t6h9p6-12t6h9p6-|
|-------------------|-------------------------------------|
|-------------------|-------------------------------------|
|-------------------|-------------------------------------|

RIFF 6 continue
|-------6-times-------|-17t8h11p8-14t5h8p5--------------------||
|---------------------|--------------------16t7h10p7-13t4h7p4-||
|---------------------|---------------------------------------||
|-17t8h11p8-14t8h11p8-|---------------------------------------||
|---------------------|---------------------------------------||
|---------------------|---------------------------------------||


RIFF 7 (1:17) both gtr.
|---------------------------------------------------------||
|---------------------------------------------------------||
|--------------------------------------------------8---8--||
|-----------------------ph----------------6-/--9---9---9--||
|-------6666667777------4-bh--------------7-/-10--10--10--||
|-666666----------53333------333333333333-----------------||
  .....................      ............



RIFF 7 last time both gtr.
|----------------------------------------------------||
|----------------------------------------------------||
|----------------------------------------------------||
|-----------------------ph----------------6--10--10--||
|-------6666667777------4-bh--------------7--11--11--||
|-666666----------53333------333333333333------------||
  .....................      ............    .   .

again RIFF 3 (1:31)
again RIFF 4 (1:37)

RIFF 1 / ENDING (1:48) both gtr.
|-------------------------------------||
|-------------------------------------||
|-------------------------------------||
|-------------------------------------||
|-6--3--3--6--3--3--6--3--3--6--4--3--||
|-4--1--1--4--1--1--4--1--1-4--2--1--||
                             .  .  .

END
Tap to rate this tab
# A B C D E F G H I J K L M N O P Q R S T U V W X Y Z