Song name
# A B C D E F G H I J K L M N O P Q R S T U V W X Y Z

Cannibal Corpse - They Deserve To Die tab

Tuning: A# D# G# C# F# A# D#

Intro
Fade in...
|------------|
|------------|
|------------|
|/8----------|
|/8----------|
|/6----------|

both guitars 1 time
|-riff-A1------------------------|
|--------------------------------|
|--------------------------------|
|--------------------------5ph---|
|---10-7---4---3---6---5---------|
|-0--8-5-0-2-0-1-0-4-0-3-0-------|
  . . . . . . . . . . . .
 ----------------------------------|
 ----------------------------------|
 ----------------------------------|
 ----------------------6-4---------|
 ---10-7---4---3---6---4-2---865---|
 -0--8-5-0-2-0-1-0-4-0-------------|
  . . . . . . . . . . . .    ...
 |-riff-A2-----------------------|
 |-------------------------------|
 |-------------------------------|
 |-------------------------5ph---|
 |-3---6---4-6-3---6---9-8-------|
 |-1-0-4-0-2-4-1-0-4-0-7-6-------|
   . . . . . . . . . . . .
 ---------------------------|
 ---------------------------|
 ---------------------------|
 ---------------------------|
 ---9-6---3---3---6---5-----|
 -0-7-4-0-1-0-1-0-4-0-3-0---|
  . . . . . . . . . . . .
both guitars 2 times
|-riff-B------------------------------|
|-------------------------------------|
|-------------------------------------|
|-------------------------------------|
|-865---865---532---865---532---------|
|-------------------------------754---|
  ...   ...   ...    ...  ...   ...

 -------------------------------------------|
 -------------------------------------------|
 -------------------------------------------|
 -------------------------------------------|
 -865---865---532---865---865---532---------|
 -------------------------------------754---|
  ...   ...   ...   ...   ...   ...   ...




both guitars 1 time
|-riff-A2-----------------------|
|-------------------------------|
|-------------------------------|
|-------------------------5ph---|
|-3---6---4-6-3---6---9-8-------|
|-1-0-4-0-2-4-1-0-4-0-7-6-------|
  . . . . . . . . . . . .
 ---------------------------|
 ---------------------------|
 ---------------------------|
 ---------------------------|
 ---9-6---3---3---6---5-----|
 -0-7-4-0-1-0-1-0-4-0-3-0---|
  . . . . . . . . . . . .

again riff B = 2 times

guitar one = 4 times
|-riff-C-----------------|
|------------------------|
|------------------------|
|------------------------|
|-----------4h7----------|
|-310---0h3-----66666\---|
  ...

guitar two = 2 times only first triple
then 2 times together with guitar one
|------------------------|
|------------------------|
|------------------------|
|------------------------|
|------------------------|
|-310--------------------|
  ...
guitar one = 2 times / guitar two = 1 time
|-riff-D--------------------------------------------------------|
|---------------------------------------------------------------|
|---------------------------------------------------------------|
|---------------------------------------------------------------|
|-----------4h7-----------7h8p7---------------------------------|
|-310---0h3-----66666\-0--------0-7h10p7h10p7-0-0-6h9p6h9p6-0-0-|
  ...                  .       .        . .       . . . .

------------------------------------------------------------|
------------------------------------------------------------|
------------------------------------------------------------|
---------------------------------------------5/8--8---------|
-5-2---3-2-----2--------------------------------------------|
 ----6-----4-1---4-1-643--976--643--532--1-4-3/6--6-6--976--|
 . . . . . . . . . . ... ... ... ... . .               ...
---------------------------------------------------------------|
---------------------------------------------------------------|
---------------------------------------------------------------|
--------------------66-----------------------555555------------|
--------------4h5p4---5555444444-----4h7p4---------------------|
-3333333333-0--------------------6-6-------6---------976--643--|
            .                    . .       .         ... ...



guitar two second time
|-riff-D--------------------------------------------------------|
|---------------------------------------------------------------|
|---------------------------------------------------------------|
|---------------------------------------------------------------|
|-----------4h7-----------7h8p7---------------------------------|
|-310---0h3-----66666\-0--------0-7h10p7h10p7-0-0-6h9p6h9p6-0-0-|
  ...                  .       .        . .       . . . .

------------------------------------------------------------|
------------------------------------------------------------|
------------------------------------------------------------|
---------------------------------------------5/8--8---------|
-5-2---3-2-----2--------------------------------------------|
 ----6-----4-1---4-1-643--976--643--532--1-4-3/6--6-6--976--|
 . . . . . . . . . . ... ... ... ... . .               ...
---------------------------------------------------------------|
---------------------------------------------------------------|
---------------------------------------------------------------|
--------------------99-----------------------888888------------|
--------------7h8p7---8888777777-----4h7p4---------------------|
-6666666666-0--------------------6-6-------6---------976--643--|
            .                    . .       .         ... ...

both guitars = 1 time
|-riff-A3-----------------------|
|-------------------------------|
|-------------------------------|
|-------------------------5ph---|
|-3---3---3---3---6---5---------|
|-1-0-1-0-1-0-1-0-4-0-3-0-------|
  . . . . . . . . . . . .
 ---------------------------------|
 ---------------------------------|
 ---------------------------------|
 ---------------------6-4---------|
 -3---6---5---3---6---4-2---865---|
 -1-0-4-0-3-0-1-0-4-0-------------|
  . . . . . . . . . . . .
 -------------------------------|
 -------------------------------|
 -------------------------------|
 -------------------------5ph---|
 -3---6---4-6-3---6---9-8-------|
 -1-0-4-0-2-4-1-0-4-0-7-6-------|
  . . . . . . . . . . . .
 ---------------------------|
 ---------------------------|
 ---------------------------|
 ---------------------6-4---|
 ---9-6---4-6-3---6---4-2---|
 -0-7-4-0-2-4-1-0-4-0-------|
  . . . . . . . . . . . .

again riff B = 2 times

|-break-|-ALEX-awesome-part-|
|-------|-------------------|
|-------|-------------------|
|-------|-------------------|
|-----3-|-------------------|
|-3-0-1-|-------------------|
  . .


both guitars = 4 times
|-riff-E---------------------------------|
|----------------------------------------|
|----------------------------------------|
|-----------------11-9-8-9-8----8--------|
|---5-2-2-10-8-7-------------11---11-9---|
|-2--------------------------------------|

 --------------------------------------|
 --------------------------------------|
 ----------------6---------------------|
 ------------------986------11108------|
 ---5-2-2-10-8-7-------1097-------11---|
 -2------------------------------------|
  . . . . . . .

attention! the following part is very tricky...

guitar one                 1 time
|-only----|-riff-F1------------------------------------------|
|-first---|--------------------------------------------------|
|-time----|--------------------------------------------------|
|---------|--------------------------------------------------|
|---------|--------------------------------------------------|
|-15151212|10101010101010101010101010101010101010101015151212
----------------------------------------------------------------|
----------------------------------------------------------------|
----------------------------------------------------------------|
-------------------------------------12109----------------------|
--------------------------------1198-------111111111111---------|
1010101010106666669999999996666------------------------15151212-|

-----------------------------------------------------------------|
-----------------------------------------------------------------|
-----------------------------------------------------------------|
-----------------------------------------------------------------|
-----------------------------------------------------------------|
10101010101010101010101010101015151212101010101010666666999999999

----------------------|
----------------------|
----------------12109-|
----------12109-------|
-----1198-------------|
6666------------------|
                   2 times
-riffF2-------------------------------------------|
--------------------------------------------------|
--------------------------------------------------|
-12121212121299121299-----------------------------|
---------------------1313131313131313131111111111-|
--------------------------------------------------|

-------------|only--|
-------------|first-|
-------------|time--|
-------------|------|
101010-------|------|
-------131313|101010|

guitar two                1 time
|-only---|-riff-F1------------------------------------------|
|-first--|--------------------------------------------------|
|-time---|--------------------------------------------------|
|--------|--------------------------------------------------|
|13131111|88888888888888888888813131111888888444444777777777
|--------|--------------------------------------------------

----------------------------------------------------------|
----------------------------------------------------------|
---------754-999999---------------------------------------|
-----643--------------------------------------------------|
4444----------------1313111188888888888888813131111888888-|
----------------------------------------------------------|

--------------------------------|
----------------------------865-|
------------------------754-----|
--------------------643---------|
4444447777777774444-------------|
--------------------------------|
                      2 times
-riffF2----------------------------------------------|only-|
-----------------------------------------------------|first|
-10101010101077101077--------------------------------|time-|
---------------------11111111111111111199999888------|-----|
-----------------------------------------------111111|888--|
-----------------------------------------------------|-----|
again riff F1 = 1   time
again riff F2 = 2   times
again riff E = 2    times
again riff C = 2    times
 (guitar two only   playing first triple)
again riff D = 2    times

again riff A3 under solo = 1 time

again riff B = 2 times

|-riffG----------------------------------------------------------------|
|----------------------------------------------------------------------|
|----------------------------------------------------------------------|
|-----------5/12--12\11--11\8-----8\5-----5\3--------------------------|
|----------------------------------------------------------------------|
|-431--1-4--3/10—-10\-9---9\6—-0--6\3--0—-3\1--431--1-1-1-1-1-1--|
  ... . .                      .       .       ... . . . . . .
 ------------------------------------------------------------------|
 ------------------------------------------------------------------|
 ------------------------------------------------------------------|
 -----------------------------5/12—-12\11--11\8------------------|
 ------------------------------------------------------------------|
 -431--1-1-1-1-1-1--431--1-4—-3/10—-10\-9---9\6-0-3h6p3-3h6p3--|
  ... . . . . . . ... . .                       .
 ------------------------------------------------------------|
 ------------------------------------------------------------|
 ------------------------------------------------------------|
 ------------------------------------------------------------|
 ------------------------------------------------------------|
 -3h6p3-3h6p3-3h6p3-431—1-1-1-1-1-1—-431--1-1-1-1-1-1----|
                    ... . . . . . . ... . . . . . .

playing till the song fades out..............

End.


Tab Legend
. - palm mute
\ - slide down to
/ - slide up to
h - hammer on
t - tap
ph - pinched harmonic
^ - Hold bend
r release bend
~ - vibrato bend
() - ghost note, sustained note
" - tremolo note
b - Bend
f - full bend
h - half bend
q - quarter bend
^ - Hold bend
r - release bend
Tap to rate this tab
# A B C D E F G H I J K L M N O P Q R S T U V W X Y Z