Song name
# A B C D E F G H I J K L M N O P Q R S T U V W X Y Z

Cannibal Corpse - Hatchet To The Head tab

Tuning: A# D# G# C# F# A# D#

(Beginning)
|-----------------------------------------------||-----------------|
|-----------------------------------------------||-----------------|
|----------------------------------------------.||-----------------|
|---------------------------------44443333-----.||------5-------4--|
|--3-4---3---33332222-3-4-3---3-----------2222--||----------6-8----|
|--1-2-0-1------------1-2-1-0-1-----------------||--30003---4-6-2--|
                                                          (mute)

Verse
|-------(3x)-------||-------------------|-------------------------------|
|------------------||-------------------|-------------------------------|
|-----------------.||-------------------|-------------------------------|
|----------4433---.||-------------------|------------------333333333333-|
|----3322------22--||--33----66---------|--33----66---------------------|
|--11----11--------||----2233--33225522-|----2233--33225522-------------|


Pre Chorus
|---------------------------------------------------------------------------||
|---------------------------------------------------------------------------||
|--------------------------------------------------------------------------.||
|--------------------------------------------------------------------------.||
|----4---4---7---------10---7---7---------4---4---7---------10---7---7---8--||
|--3---1---4---0-00007----4---6---0-00003---1---4---0-00007----4---6---5----||


Chorus
|--------------|---------(3x)----------||--------------(4x)--------------||
|--------------|-----------------------||--------------------------------||
|--------------|----------------------.||-------------------------------.||
|--------4-----|----------------4-----.||-------------------------4-----.||
|----4---5--4--|----7---8---4---5--4---||----10---7---7---8---4---5--4---||
|--3---0-6--3--|--6---5---3---0-6--3---||--7----4---6---5---3---0-6--3---||


(After second chorus, back to variation of Beginning)


Middle Part
|--------(3x)---------||-----(1 & 3)-------|-------(2 & 4)-----------|
|---------------------||-------------------|-------------------------|
|--------------------.||-------------------|-------------------------|
|--------------------.||-------------------|-------------------------|
|---------------------||-7-----8-----4-----|-7-----8-----4-----3-----|
|--5-4-3-6-2-0-2-1-0--||-5-----6-----2-----|-5-----6-----2-----1-----|
||------(stops)-|----------------------------------------------------|
||--------------|----------------------------------------------------|
||.-------------|----------------------------------------------------|
||.-------------|----------------------------------------------------|
||--7-6---6-4---|-1p0------------------------------------------------|
||--5-4-.-4-3-.-|-----3-2-1-0----------------------------------------|

|---------------------------------------------------|
|---------------------------------------------------|
|---------------------------------------------------|
|---------------------------------------------------|
|---------7777-----------7777-------7777------------|
|--3p0-6p0----6p0-6p0-6p0----6p0-6p0----6p0-6p0-6p0-|

--------------------------------------------|
--------------------------------------------|
--------------------------------------------|
--------------------------------------------|
777766666666------------88888888---------3--|
------------777766778888--------11111111-1--|


[gtr. 2 variation of above, added by MK combining correct bass notes by POB]
|---------------------------------------------------|
|---------------------------------------------------|
|---------------------------------------------------|
|---------------------------------------------------|
|---------7777-----------7777-------7777------------|
|--3p0-6p0----6p0-6p0-6p0----6p0-6p0----6p0-6p0-6p0-|

----------------------------------------------|
----------------------------------------------|
----------------------------------------------|
--666655555555------------77777777---------3--|
--------------666655667777-----------------3--|
-----------------------------------1111111-1--|


Pat Solo: (Rhythm is same as Verse)

|-24"--18"----------------18-20-21"-18-20-21-23h"-h21h18-------------------|
|----------21-20-18-20-21--------------------------------21-20-18-21-20-18-|
|--------------------------------------------------------------------------|
|--------------------------------------------------------------------------|
|--------------------------------------------------------------------------|
|--------------------------------------------------------------------------|

-------------------20~--------------12-11---------------------------------------|
-21-20-18-21-20-18-------8-11-12h11--------------------16-15--------------------|
-------------------------------------------13-15-16h15-------------------17-16--|
-------------------------------------------------------------14-16-17h16--------|
--------------------------------------------------------------------------------|
--------------------------------------------------------------------------------|

----------20-------------------19-------------------24----------------23~-|
-------17----17-------------16----16-------------21----21-----------------|
----17----------17-------16----------16-------21----------21-------20-----|
-19----------------19-18----------------18-23----------------23-22--------|
--------------------------------------------------------------------------|
--------------------------------------------------------------------------|
you'll have to pick shaking the whammy here.
-----------------------------------------------------------|
-----------------------------------------------------------|
-11~~---12~~---14~~---15~~---17~~--18~~-21~~-20~~-18~~-17~-|
-----------------------------------------------------------|
-----------------------------------------------------------|
-----------------------------------------------------------|



-----------------------------------------------------------------------|
-----------------------------------------------------------------------|
-11h10h9---------12h11h10----------15h14h13----------17h16h15----------|
---------9-10-11----------10-11-12----------13-14-15----------15-16-17-|
-----------------------------------------------------------------------|
-----------------------------------------------------------------------|

-----------------------------------------------------------------------------|
-----------------------------------------------------------------------------|
-19h18h17----------20h19h18----------21h20h19----------22h21h20----------23~-|
----------17-18-19----------18-19-20----------19-20-21----------20-21-22-----|
-----------------------------------------------------------------------------|
-----------------------------------------------------------------------------|
End Part
|----------------------------------------|
|----------------------------------------|
|----------------------------------------|
|-----------------------------------4----|
|-----13---9---10---7---7---8---4---5--4-|
|--10----8---7----4---6---5---3---0-6--3-|

|--------------------------------------------------|
|--------------------------------------------------|
|--------------------------------------------------|
|--------------------------------------------4-----|
|---10---10----13---9---10---7---7---8---4---5--4--|
|-9----7----10----8---7----4---6---5---3---0-6--3--|

|---------------------------------------------------------------|
|---------------------------------------------------------------|
|---------------------------------------------------------------|
|-----11--------------------------------------------------4-----|
|--10-------13---10---10----13---9---10---7---7---8---4---5--4--|
|--------10----9----7----10----8---7----4---6---5---3---0-6--3--|

|-----------------------------------------------------------------------|
|-----------------------------------------------------------------------|
|-----------------------------------------------------------------------|
|-------------11--------------------------------------------------4-----|
|----4---7-10-------13---10---10----13---9---10---7---7---8---4---5--4--|
|--1---4---------10----9----7----10----8---7----4---6---5---3---0-6--3--|

End.

Tab Legend

. - palm mute
\ - slide down to
/ - slide up to
h - hammer on
t - tap
ph - pinched harmonic
^ - Hold bend
r release bend
~ - vibrato bend
() - ghost note, sustained note
" - tremolo note
b - Bend
f - full bend
h - half bend
q - quarter bend
^ - Hold bend
r - release bend
Tap to rate this tab
 
# A B C D E F G H I J K L M N O P Q R S T U V W X Y Z