Song name
# A B C D E F G H I J K L M N O P Q R S T U V W X Y Z

Cannibal Corpse - Savage Butchery tab

Tuning: A# D# G# C# F# A# D#

Intro (Jack Owen)
|-------------------------------------------|
|-------------------------------------------|
|-------------------------------------------|
|----------6\5-5-5---------6\5-5-5-9\8-8-8--|
|--7---4---4\3-3-3-7---4---4\3-3-3-7\6-6-6--|
|--5---2-----------5---2--------------------|

Pat O'Brien
|------------------------|
|------------------------|
|------------------------|
|------------------------|
|--7---4----------7---4--|
|--5---2----------5---2--|

Jack Owen
|-----------------------------------------------------------|
|-----------------------------------------------------------|
|-----------------------------------------------------------|
|----------6\5-5-5---------12\11-11-11-11\10-10-10-10\9-9-9-|
|--7---4---4\3-3-3-7---4---10\-9--9--9--9\-8--8--8--8\7-7-7-|
|--5---2-----------5---2------------------------------------|

Pat O'Brien
|------------------------|
|------------------------|
|------------------------|
|------------------------|
|--7---4----------7---4--|
|--5---2----------5---2--|

Riff2 (Both)
|----------------------------------------------|
|----------------------------------------------|
|----------6\5-5-5-9\8-8-8-8\7-7-7-7-7\6-6-6-6-|
|--7---4---4\3-3-3-7\6-6-6-6\5-5-5-5-5\4-4-4-4-|
|--5---2---------------------------------------|
|----------------------------------------------|


|---------------------------------------------------|
|---------------------------------------------------|
|----------6\5-5-5-12\11-11-11-11\10-10-10-10\9-9-9-|
|--7---4---4\3-3-3-10\-9--9--9--9\-8--8--8--8\7-7-7-|
|--5---2--------------------------------------------|
|---------------------------------------------------|
Riff3 (Both)
|------------------------------------------------------|
|------------------------------------------------------|
|------------------------------------------------------|
|------------------------------------------------------|
|-5----10\9-9-9--5----10\9-9-9-11\10-10-10-12\11-11-11-|
|-3--0--8\7-7-7--3--0--8\7-7-7--9\-8--8--8-10\9--9--9--|


Jack Owen SOLO.

Riff4 (under solo) (Pat O'Brien)
|----------------------------------------------------------|
|----------------------------------------------------------|
|------------------6\5-5-5-----------------6\5-5-5-5\4-4-4-|
|----------5\4-4-4-4\3-3-3---------5\4-4-4-4\3-3-3-3\2-2-2-|
|--6---3---3\2-2-2---------6---3---3\2-2-2-----------------|
|--4---1-------------------4---1---------------------------|

Jack Owen
|----------------------------------------------|
|----------------------------------------------|
|----------6\5-5-5-9\8-8-8-8\7-7-7-7-7\6-6-6-6-|
|--7---4---4\3-3-3-7\6-6-6-6\5-5-5-5-5\4-4-4-4-|
|--5---2---------------------------------------|
|----------------------------------------------|

|---------------------------------------------------|
|---------------------------------------------------|
|----------6\5-5-5-12\11-11-11-11\10-10-10-10\9-9-9-|
|--7---4---4\3-3-3-10\-9--9--9--9\-8--8--8--8\7-7-7-|
|--5---2--------------------------------------------|
|---------------------------------------------------|

Pat O'Brien (heavy Palm Mute)
|----------------------------------------------|
|----------------------------------------------|
|----------6\5-5-5-9\8-8-8-8\7-7-7-7-7\6-6-6-6-|
|--7---4---4\3-3-3*7\6-6-6*6\5-5-5-5*5\4-4-4-4-|
|--5---2---------------------------------------|
|----------------------------------------------|

|---------------------------------------------------|
|---------------------------------------------------|
|----------6\5-5-5-12\11-11-11-11\10-10-10-10\9-9-9-|
|--7---4---4\3-3-3-10\*9--9--9-*9\*8--8--8-*8\7-7-7-|
|--5---2--------------------------------------------|
|---------------------------------------------------|
           . . . . . . . . . .        . . . . . .

repeat Intro.

End.
Tab Legend
. - palm mute
\ - slide down to
/ - slide up to
h - hammer on
t - tap
ph - pinched harmonic
^ - Hold bend
r release bend
~ - vibrato bend
() - ghost note, sustained note
" - tremolo note
b - Bend
f - full bend
h - half bend
q - quarter bend
^ - Hold bend
r - release bend
Tap to rate this tab
 
# A B C D E F G H I J K L M N O P Q R S T U V W X Y Z