Song name
# A B C D E F G H I J K L M N O P Q R S T U V W X Y Z

Cannibal Corpse - Rotted Body Landslide tab

#----------------------------------PLEASE NOTE---------------------------------#
#This file is the author's own work and represents their interpretation of the #
#song. You may only use this file for private study, scholarship, or research. #
#------------------------------------------------------------------------------#


Band:  (Cannibal Corpse)                                             
Album: (The Wretched Spawn)
Song:  (Rotted Body Landslide)




.  - palm mute           /  - slide up to
\  - slide down to       ~  - vibrato
h  - hammer on           b  - Bend
p  - pull off            Suffixes for bend
t  - tap                 f  - full bend    h - half bend
ph - pinched harmonic    q  - quarter bend t - tap bend
*  - see comment         ^  - Hold bend    r release bend
x  - Stuccatto           ~  - vibrato bend
,  - slight palm mute    () - ghost note, sustained note
"  - tremolo note        <> - Trill

Tunning Key of B-Flat




Fill A          Intro riff                Intro Riff FILL B
1 Time                                       Last Time 
Only             4 Times
|---|       |------------------------------|   |---|
|---|       |------------------------------|   |---|
|---|       |------------------------------|   |---|
|---|       |------------------------------|   |---|
|---|       |235--222----------------------|   |235|
|-0-|       |-----000--3000-3000-3000-3000-|   |---|
  .          ...  ...  .... .... .... ....      ...



Riff 1

Left Channel

|------------------------------------------------------|
|------------------------------------------------------|
|------------------------------------------------------|
|----------6666--4444-------------99999999-------------|
|33333333-------------5555--6666------------9999--6666-|
|------------------------------------------------------|



Riff 1

Right Channel

|------------------------------------------------------------------------
|------------------------------------------------------------------------
|------------------------------------------------------------------------
|----------10-10-10-10--8888---------------------14-14-14-14-14-14-14-14-
|77777777---------------------9999--10-10-10-10--------------------------
|------------------------------------------------------------------------

 -------------------------|
 -------------------------|
 -------------------------|
 -------------------------|
 14-14-14-14--10-10-10-10-|
 -------------------------|



Riff 2                                            

Both Guitars

Two Times

|-------------------------------------------|     
|-------------------------------------------|     
|-------------------------------------------|     
|----------7777------------------------5555-|     
|33333333--------6666--33333333--11/44------|     
|-------------------------------------------|     



Riff 3

One Time

|-----------------------------------------|
|-----------------------------------------|
|-----------------------------------------|
|---------5555-3333-----------66----88----|
|22222222-----------2222-3333----55----55-|
|-----------------------------------------|
     


Riff 4

Four Times

|----------------------------------------------|
|----------------------------------------------|
|----------------------------------------------|
|----------8888--6666--------------------------|
|55555555--------------55555555----------------|
|--------------------------------447--336--447-|
                                 ...  ...  ...



Riff 1 Four Times
Riff 2 Two Times                                                       
Riff 3 One Time
Riff 4 Four Times
Riff 8 Four Times     

Riff 5
                                                            
|-------------------------------------------------------------------
|-------------------------------------------------------------------
|-------------------------------------------------------------------
|/11------------------------/11------------------------/11----------
|-----2-2-2-2--------------------2-2-2-2--------------------2-2-2-2-
|/-9--0-0-0-0--0h6h7p6h7p6--/-9--0-0-0-0--0h6h7p6h7p6--/-9--0-0-0-0-
      . . . .                    . . . .                    . . . .
                                              
                                            Riff 5 FILL
                             
                                             End With
 ----------------------------------------|  |------------|
 ----------------------------------------|  |------------|
 ----------------------------------------|  |------------|
 --------------/11-----------------------|  |-/11--------|
 -------------------2-2-2-2--------------|  |------2-2-2-|
 -0h6h7p6h7p6--/-9--0-0-0-0--0h6h7p6h7p6-|  |-/-9--0-0-0-|
                    . . . .                        . . .


Riff 6

|--------------|
|--------------|
|--------------|
|9-------------|
|7-8--5-8--8-5-|
|--6--3-6--6-3-|



Riff 7                                       Riff 7 FILL A
                                              2nd and 3rd
                                               time only  
|---------------------------------------------|  |---|
|---------------------------------------------|  |---|
|---------------------------------------------|  |---|
|888888--12-12-12-12-12-12--11-11-11-11-11-11-|  |---|
|---------------------------------------------|  |-"-|
|666666--10-10-10-10-10-10---9--9--9--9--9--9-|  |-3-|



Riff 7 FILL B (2nd and 3rd time only)

|------------------------------------|
|------------------------------------|
|666666-10-10-10-10-10-10--999999----|
|------------------------------------|
|444444--8--8--8--8--8--8--777777--"-|
|----------------------------------3-|



Riff 1 4 Times
Riff 2 2 Times
Riff 3 1 Time
Riff 4 4 Times


Than
 


Riff 8                                                
 
Four Times                                             Play 3 x's only
                                                   
|---------------------------------------------------|     |------|
|---------------------------------------------------|     |------|
|---------------------------------------------------|     |------|
|----------10-10-10-10--8888------------11-11-11-11-|     |------|
|77777777---------------------77777777--------------|     |------|
|---------------------------------------------------|     |-669--|
                                                            ...


Riff 5 Eight Times, followed by Riff 5 FILL Once
Riff 6 Once
Riff 7 and Riff 7 FILL Once
Riff 5 and Riff 5 FILL
Riff 7 and Riff 7 FILL A and B
Play Intro Riff, minus FILL B
     


Riff 9                                               Riff 9 FILL
                                                                      
|--------------------------------------------------| |----------|
|--------------------------------------------------| |----------|
|-----------------------------------------9---12\6-| |----------|
|/11-------/8-------------12---11\8----------------| |-/11------|
|-----2-2------2-2----2-2------------2-2--7---10\4-| |------2-2-|
|/-9--0-0--/6--0-0----0-0-10-0--9\6--0-0----0------| |-/-9--0-0-|
      . .      . .    . .    .       . .    .               . .



Riff 10                               Slide (somewhere around 24th, than down)

|--------------------------------------|  |---------------------------------|
|--------------------------------------|  |---------------------------------|
|--------------------------------------|  |---------------------------------|
|-----------------5/8~-----------------|  |---------------------------------|
|--5-----4-----5----------5-------5----|  |---------------------------------|
|0-3-6-3---6-0-3--3/6~--0-3-6-3-0-3-6~-|  |\slide from wherever to nowwhere-|
 . .   .   . . .        . .   . . .




|-----------------------------------------------------------------------------|
|-----------------------------------------------------------------------------|
|-----------------------------------------------------------------------------|
|/11-------/8-------------12---11\8------11---10\7------10---9\6------9---8\6-|
|-----2-2------2-2----2-2------------2-2------------2-2-----------2-2---------|
|/-9--0-0--/6--0-0----0-0-10-0--9\6--0-0--9-0--8\5--0-0--8-0-7\4--0-0-7-0-6\3-|
      . .      . .    . .    .       . .    .       . .    .      . .   .



Riff 10 Once
Slide
Riff 11 Once



Riff 11


Left Channel

|-------------------------------------------------------------|
|-------------------------------------------------------------|
|-------------------------------------------------------------|
|/11-------/8-------------12---11\8------------------/11------|
|-----2-2------2-2----2-2------------2-2--7---10----------2-2-|
|/-9--0-0--/6--0-0----0-0-10-0--9\6--0-0----6----9---/-9--0-0-|
      . .      . .    . .    .       . .    .    .        . .


Right Channel

|-------------------------------------------------------------|
|-------------------------------------------------------------|
|/10-------/12-------------8----7\4---------------------------|
|-----------------------------------------5----8-----/11------|
|/-7--2-2--/10--2-2----2-2-6----5\2--2-2----4----7--------2-2-|
|-----0-0-------0-0----0-0---0-------0-0-------------/-9--0-0-|
      . .       . .    . .   .       . .    .    .        . .



Riff 12 (right channel harmony for Riff 10)

|----------------------------------------|
|----------------------------------------|
|----------------------------------------|
|----------------------------------------|
|--5-----4-----5--1/4~----5-------5-1/4~-|
|0-3-6-3---6-0-3--------0-3-6-3-0-3------|
 . .   .   . . .        . .   . . .



Play Slide Once



Riff 13

|------------------|
|------------------|
|------------------|
|/11-------/8------|
|-----2-2------2-2-|
|/-9--0-0--/6--0-0-|
      . .      . .




Left Channel

|-------------------------------   --------------------------
|-------------------------------   --------------------------
|-------------------------------   --------------------------
|-----12---11\8-------11---10\7-   --------------------------
|2-2-------------2-2------------   -2-5----------2-5---------
|0-0--10-0--9\6--0-0---9-0--8\5-   -0-3-6-3-7-4--0-3-7-4-6-3-
 . .     .       . .     .          . .   .   .  . .          


 ------------------------   ----------------------------------------------------|
 ------------------------   ----------------------------------------------------|
 ------------------------   ----------------------------------------------------|
 ---------------------7--   ----------------------------/11-----------------/11-|
 ---------8-------8-----8   -7---7---10----7---8---7----------------------------|
 -0-6-9-6---9-0-6---9----   -0-6---6----9--0-6---9---9--/-9-000000000000000-/-9-|
  . .   .   . . .   .   .    . .   .    .  . .   .   .      ...............




Right Channel

|-------------------------------   --------------------------
|-------------------------------   --------------------------
|-------------------------------   -----8---7\4------7---6\3-
|-----12---11\8-------11---10\7-   --------------------------
|2-2-------------2-2------------   -2-2-6---5\2--2-2-5---4\1-
|0-0--10-0--9\6--0-0---9-0--8\5-   -0-0---0------0-0---0-----
 . .     .       . .     .          . .   .      . .   .      


 -------------------------   ---------------------------------------|
 -------------------------   ---------------------------------------|
 -------------------------   ---------------------------------------|
 -------------------------   -----------------------------------/11-|
 ---------7-------8---7---   -----10-7--14-11--7----11-8--10-7------|
 -0-6-9-6---9-0-6---9---9-   -0-6--------------0-6--------------/-9-|
  . .   .   . . .   .   .     . .              . .    




Riff 5 8 times, Riff 5 FILL Once
Riff 6 Once

 End
Tap to rate this tab
# A B C D E F G H I J K L M N O P Q R S T U V W X Y Z