Song name
# A B C D E F G H I J K L M N O P Q R S T U V W X Y Z

Cannibal Corpse - When Death Replaces Life tab

Cannibal Corpse
When Death Replaces Life
Gore Obsessed
Metal Blade Records


As with all guitar tablature, a mono-spaced font
(e.g. Courier or Monaco) is required to display properly...

[tuning is B-flat, with standard intervals between strings]

Fig. 1a
|-------------------------------------------------|
|-------------------------------------------------|
|-------------------------------------------------|
|-------------------------------------------------|
|-------3-----3-----3-----------4-----4-----4-----|
|-------------------------------------------------|
|-1--2-----2-----2-----2--2--1-----1-----1-----1--|

1b
|-----------------------------|---------------------------3--|
|-----------------------------|---------------------------3--|
|-----------------------------|---------------------------1--|
|-----------------------------|---------------------------x--|
|-------3-----3-----3-----3---|---------3-----3-----3-----3--|
|-------------------------3---|---------------------------3--|
|-1--2-----2-----2-----2--1---|---1--2-----2-----2-----2--1--|


Fig. 2a
|-4---3----------------------------|
|-4---3----------------------------|
|-5---4----------------------------|
|-6---5----------------------------|
|-6---5----------------------------|
|-4---3---------6---7---6---3---6--|
|---------0-0---4---5---4---1---4--|

Fig. 2b
|-4---3----------------------------|
|-4---3----------------------------|
|-5---4----------------------------|
|-6---5----------------------------|
|-6---5----------------------------|
|-4---3-------------7---6---3---6--|
|-------------------5---4---1---4--|


Fig. 3
|--------------------------------------------------------------------|
|--------------------------------------------------------------------|
|--------------------------------------------------------------------|
|--------------------------------------------------------------------|
|-----------------------------------------33332222-------------------|
|-2---3---7---6---7---6---3---6---2---3-----------444433333----------|
|-0---1---5---4---5---4---1---4---0---1--------------------5555440---|


Fig. 4a
|------------------------------------|
|------------------------------------|
|------------------------------------|
|------------------------------------|
|--77776666----7777------------------|
|----------8888----8888777788887777--|
|------------------------------------|


Fig. 4b
|--------------------------------------------------------------------|
|--------------------------------------------------------------------|
|--------------------------------------------------------------------|
|--------------------------------------------------------------------|
|--77776666----7777--------------------------------------------------|
|----------8888----8888777788887777----7777--------------------------|
|----------------------------------9999----99998888999988885555880---|


Fig. 5
(length is off because of those damn double-digit numbers
but it should sound like the riff above -MK ;)
|-------------------------------------------------------------------------|
|-------------------------------------------------------------------------|
|-------------------------------------------------------------------------|
|-------------------------------------------------------------------------|
|--14---13---10---13---10---9---10---9---6---9---6---5---6---5------------|
|--12---11---*8---11---*8---7---*8---7---4---7---4---3---4---3---7---10---|
|-----0----0----0----0----0---0----0---0---0---0---0---0---0---0-5-0-*8-0-|


Fig. 6a
|-----------------------------------------------------------------|
|-----------------------------------------------------------------|
|-----------------------------------------------------------------|
|-----------------------------------------------------------------|
|-----------------------------------------------------------------|
|--00004h7p4p0-8h11p8p0-4h7p4p0-000000009h12p9p0-8h11p8p0-4h7p4p0-|
|-----------------------------------------------------------------|

Riff 6b (as close as I could hear -MK)
[gtr. 1]
|-------------------------------------------------------------|
|-------------------------------------------------------------|
|-------------------------------------------------------------|
|-------------------------------------------------------------|
|-------------------------------00004h7p4p0-9h12p9p0-8h11p8p0-|
|--00004h7p4p0-8h11p8p0-4h7p4p0-------------------------------|
|-------------------------------------------------------------|

[gtr. 2]
|--------------------------------------------------------------|
|--------------------------------------------------------------|
|--------------------------------------------------------------|
|--------------------------------------------9h12p9p0-8h11p8p0-|
|-------------------------------00009h12p9p0-------------------|
|--00004h7p4p0-8h11p8p0-4h7p4p0--------------------------------|
|--------------------------------------------------------------|

Solo Rhythm a
|---------------|--------------|
|---------------|--------------|
|---------------|--------------|
|---------------|--------------|
|---------------|-333222-------|
|---------------|-------444333-|
|--555440110444-|--------------|

Solo Rhythm b
|---------------------------|
|---------------------------|
|---------------------------|
|---------------------------|
|--333222-------------------|
|--------444333-------------|
|--------------555444111000-|


Ending
|---------------------------------------------------------------------|
|---------------------------------------------------------------------|
|---------------------------------------------------------------------|
|---------------------------------------------------------------------|
|-9---10-----------------------------------33332222-------------------|
|-7---*8---7---6---7---6---3---6---2---3-----------444433333----------|
|----------5---4---5---4---1---4---0---1--------------------5555440---|
Tap to rate this tab
 
# A B C D E F G H I J K L M N O P Q R S T U V W X Y Z