Song name
# A B C D E F G H I J K L M N O P Q R S T U V W X Y Z

Cannibal Corpse - Raped By The Beast tab

Band:  Cannibal Corpse
Album: Bloodthirst
Song:  Raped By The Beast



.  - palm mute           /  - slide up to
\  - slide down to       ~  - vibrato
h  - hammer on           b  - Bend
p  - pull off            Suffixes for bend
t  - tap                 f  - full bend    h - half bend
ph - pinched harmonic    q  - quarter bend t - tap bend
~  - vibrato bend        ^  - Hold bend    r release bend


Tuning 6 half steps down: Bb-Eb-Ab-Db-F-Bb 


Guitar 1 = left side
Guitar 2 = right side


intro
|-----------|
|-----------|
|-----------|
|-----------|
|-----------|
|-15-\------|

RIFF 1 (0:01) both gtr.
|--------------------------------------||
|--------------------------------------||
|--------------------------------------||
|-----5h6p5-------------5h6p5----------||
|-4h5---------------4h5----------------||
|-----------1111113-----------55555555-||

RIFF 2 (0:09) both gtr.
|------ph-------------------------------||
|------5h6p5----------------------------||
|---------------------------------------||
|-6h7--------------------5h6p5----------||
|--------------------4h5-------55555555-||
|------------1111113--------------------||

RIFF 2 last time 
|------ph---------------------------------||
|------5h6p5------------------------------||
|-----------------------------------------||
|-6h7--------------------5h6p5------------||
|--------------------4h5-------5555555555-||
|------------1111113----------------------||



RIFF 3 (0:18) gtr. 1
|--------------------------------2----------1---||
|--------------------------------3----------2---||
|--------------------------------4----------3---||
|-------6655006655008877---------4----------3---||
|-043300----------------00332200-2---002211-1---||
|-----------------------------------------------||
  ..............................     ......

RIFF 3 (0:18) gtr. 2
|--------------------------------2----------1---||
|--------------------------------3----------2---||
|--------------------------------4----------3---||
|--------------------------------4----------3---||
|-----------------------00332200-2---002211-1---||
|-----------------------------------------------||
                        ........     ......
again RIFF 3 

RIFF 4 (0:31) both gtr.
|--------------------------------------------------||
|-----------------------------------------------66-||
|-----------------------------------55----775577---||
|-----------------------55----665588--5588---------||
|-----------55----775577--5588---------------------||
|-0000775577--5588---------------------------------||
  ................................................

again RIFF 3 (0:38) 
 
RIFF 3 last time / gtr. 1
|--------------------------------2----------1---||
|--------------------------------3----------2---||
|--------------------------------4----------3---||
|-------6655006655008877---------4----------3---||
|-043300----------------00332200-2---002211-1---||
|-----------------------------------------------||
  ..............................     ......

RIFF 3 last time / gtr. 2
|--------------------------------2----------1---||
|--------------------------------3----------2---||
|--------------------------------4----------3---||
|--------------------------------4----------3---||
|--------------------------------2---002211-1---||
|-----------------------------------------------||
                                     ......
RIFF 5 (0:52) both gtr.
|--------------------------------------||
|--------------------------------------||
|---------------------------------7710-||
|-----------------------7710-8811------||
|-----885-447-7710-8811----------------||
|-007----------------------------------||
  ... ... ... ...  ...  ...  ...  ...

RIFF 6a (1:01) both gtr.
|--------------------------------------------------------||
|----------------------------------------------------6p3-||
|------------------------------------------5p3-6p3p0-----||
|--------------------------------5p3-6p3p0---------------||
|----------------------5p3-6p3p0-------------------------||
|-0000000000000000-6p3-----------------------------------||
RIFF 6b (1:08) both gtr.
|---------------------------------------||
|-----------------------------------6p3-||
|-------------------------5p3-6p3p0-----||
|---------------5p3-6p3p0---------------||
|-----5p3-6p3p0-------------------------||
|-6p3-----------------------------------||

again RIFF 6a (1:15)

last time of RIFF 6a both gtr.
|----------------------------------------------------||
|----------------------------------------------------||
|------------------------------------------5p3-6p3p0-||
|--------------------------------5p3-6p3p0-----------||
|----------------------5p3-6p3p0---------------------||
|-0000000000000000-6p3-------------------------------||

again RIFF 1 (1:22)
again RIFF 2 (1:31)

BREAK (1:39) both gtr.
|------------------------------------------------------------------||
|------------------------------------------------------------------||
|------------------------------------------------------------------||
|------------------------------------------------------------------||
|-4300430043004300430043004300430043004300430043004300430043004300-||
|------------------------------------------------------------------||
  ................................................................

RIFF 7 (1:44) both gtr.
|----------3-times------------|------------last-------------||
|-----------------------------|-----------------7-------6---||
|-----------------------------|-----------------7-------6---||
|-----------------------------|-----------------9-------8---||
|-----------------3-3-3-3-3-3-|-----------------9-------8---||
|-4\1---4/5---4\1-1-1-1-1-1-1-|-4\1---4/5---00007---00006---||
                  . . . . . .               ....    ....

solo 1  / rhythm RIFF 7 (1:52)
again RIFF 7 alone      (2:00)
solo II / rhythm RIFF 7 (2:08)

again RIFF 3            (2:16)

END
Tap to rate this tab
# A B C D E F G H I J K L M N O P Q R S T U V W X Y Z