Song name
# A B C D E F G H I J K L M N O P Q R S T U V W X Y Z

Cannibal Corpse - Sentenced To Burn tab

Band:  Cannibal Corpse
Album: Gallery Of Suicide
Song:  Sentenced to Burn


.  - palm mute           /  - slide up to
\  - slide down to       ~  - vibrato
h  - hammer on           b  - Bend
p  - pull off            Suffixes for bend
t  - tap                 f  - full bend    h - half bend
ph - pinched harmonic    q  - quarter bend t - tap bend
~  - vibrato bend        ^  - Hold bend    r release bend

Tuning 6 half steps down: Bb-Eb-Ab-Db-F-Bb

Guitar 1 = left  channel
Guitar 2 = right channel
RIFF 1 (0:00) both gtr.
|---------||
|---------||
|---------||
|---------||
|---------||
|-6-5-3-0-||
  . . . .

RIFF 2 (0:04) both gtr.
|------------------------------------------------------------------|
|------------------------------------------------------------------|
|------------------------------------------------------------------|
|------------------------------------------------------------------|
|-11-----5-----8-----8-----11-----5/8-----8-----11-----5-----8-----|
|-9--0-0-3-0-0-6-0-0-6-0-0-9--0-0-3/6-0-0-6-0-0-9--0-0-3-0-0-6-0-0-|
     . .   . .   . .   . .    . .     . .   . .    . .   . .   . .

LEAD 1 (0:09)
|----------------------------------------------------------------|
|----------------------------------------------------------------|
|-17\16-16\12-12\11-11\9-9/12-12-12\11-1111-11\8-88-8\5-5/8--8-8\|
|----------------------------------------------------------------|
|-15\14-14\10-10\9--9-\7-7/10-10-10\9--9-9--9-\6-66-6\3-3/6--6-6\|
|----------------------------------------------------------------|

RIFF 2 (0:09) continue
--------------------------------------------------------------------|
--------------------------------------------------------------------|
--------------------------------------------------------------------|
--------------------------------------------------------------------|
-8/11-----5-----8-----8-----11-----5/8-----8-----11-----5-----8-----|
-6/9--0-0-3-0-0-6-0-0-6-0-0-9--0-0-3/6-0-0-6-0-0-9--0-0-3-0-0-6-0-0-|
      . .   . .   . .   . .    . .     . .   . .    . .   . .   . .
RIFF 2 continue
--------------------------------------------------------------------|
--------------------------------------------------------------------|
--------------------------------------------------------------------|
--------------------------------------------------------------------|
-8/11-----5-----8-----8-----11-----5/8-----8-----11-----5-----8-----|
-6/9--0-0-3-0-0-6-0-0-6-0-0-9--0-0-3/6-0-0-6-0-0-9--0-0-3-0-0-6-0-0-|
      . .   . .   . .   . .    . .     . .   . .    . .   . .   . .

RIFF 2 continue
---------------------------------------------------------------------|
---------------------------------------------------------------------|
---------------------------------------------------------------------|
---------------------------------------------------------------------|
8/11-----5-----8-----8-----11-----5/8-----8-----11-----5-----8-------|
6/9--0-0-3-0-0-6-0-0-6-0-0-9--0-0-3/6-0-0-6-0-0-9--0-0-3-0-0-6-0-0-0-|
      . .   . .   . .   . .    . .     . .   . .    . .   . .  . . .

RIFF 3 (0:23) both gtr.
|---------------------------------|
|---------------------------------|
|---------------------------------|
|---------------------------------|
|---------------------------------|
|-9-6-0-9-6-0-9-6-0-8-5-0-7-4-6-3-|
  . . . . . . . . . . . . . . . .


again RIFF 2 (0:33)
again RIFF 3 (0:51)
again RIFF 1 (1:01)
again RIFF 2 (1:10)


LEAD 2 (1:15)
|-----------------------------------------------------------|
|-5/8-8-8-7---7/13-13-12-12---12/17-17-17-17\16-16-16/19-19-|
|-----------------------------------------------------------|
|-2/5-5-5-4---4/10-10-9--9----9-/14-14-14-14\13-13-13/16-16-|
|-----------------------------------------------------------|
|-----------------------------------------------------------|

 --------------------|
 -20-20-20\19/20-\---|
 --------------------|
 -17-17-17\16/17-\---|
 --------------------|
 --------------------|


RIFF 2 continue...


again RIFF 3 (1:30)
again RIFF 1 (1:39) (with flanger effect)
again RIFF 1 (1:44) (normal)

RIFF 1 (not P.M.) (1:49)
|---------||
|---------||
|---------||
|---------||
|---------||
|-6-5-3-0-||

RIFF 4 (1:54) both gtr.
|-----------------------------------------------------------------||
|-----------------------------------------------------------------||
|-----------------------------------------------------------------||
|-9-----12---------ph--------ph---7-----12------------------------||
|-7-----10---------4-~-------4-~--9-----10---------444444---------||
|---0-0----0-6-3-0-------633--------0-0----0-6-3-0-------33333333-||
    . .    . . . .       ...        . .    . . . .

RIFF 4 (2:03) gtr. 2
|-----------------------------------------------------------------||
|-----------------------------------------------------------------||
|-7-----10------------------------7-----10------------------------||
|-5-----8----------ph--------ph---5-----8-------------------------||
|------------------4-~-------4-~-------------------777777---------||
|---0-0----0-6-3-3-------633--------0-0----0-6-3-3-------66666666-||
    . .    . . . .       ...        . .    . . . .

RIFF 5 (2:13) both gtr.
|--------------------------------------------||
|--------------------------------------------||
|--------------------------------------------||
|--------------------------------------------||
|-777777------777777101010101010----10101010-||
|-------666666------------------6666---------||
  ..........................................

RIFF 5 (2:24) gtr. 2
|--------------------------------------------------------||
|--------------------------------------------------------||
|--------------------------------------------------------||
|--------------------------------------------------------||
|-101010101010------101010101010131313131313----13131313-||
|-------------999999------------------------9999---------||
  ......................................................

again RIFF2 under SOLO (2:35)
again RIFF 1           (2:55)

SENTENCED TO
BURN
|-----||
|-----||
|-----||
|-2---||
|-2---||
|-0---||
  END
Tap to rate this tab
# A B C D E F G H I J K L M N O P Q R S T U V W X Y Z