Song name
# A B C D E F G H I J K L M N O P Q R S T U V W X Y Z

Cannibal Corpse - Puncture Wound Massacre tab

Band:  Cannibal Corpse
Album: Vile
Song:  Puncture Wound Massacre


.  - palm mute           /  - slide up to
\  - slide down to       ~  - vibrato
h  - hammer on           b  - Bend
p  - pull off            Suffixes for bend
t  - tap                 f  - full bend    h - half bend
ph - pinched harmonic    q  - quarter bend t - tap bend
~  - vibrato bend        ^  - Hold bend    r release bend

Tuning 6 half steps down: Bb-Eb-Ab-Db-F-Bb

Guitar 1 = left side
Guitar 2 = right side

RIFF 1 (0:00) gtr. 1
|-----------------------||
|-----------------------||
|-----6\3---------------||
|-5-3-4\1----5-888-5-2--||
|-3-1-----0--3-666-3-0--||
|-----------------------||
  . .
RIFF 1 (0:00) gtr. 2
|-----------------------||
|-----------------------||
|-----6\3---------------||
|-5-3-4\1---------------||
|-3-1-------------------||
|-----------------------||
  . .

again RIFF 1 both gtr.

RIFF 2 (0:11) both gtr.
|-----------------------------------||
|-----------------------------------||
|-----------------------------------||
|-----------------11444444-11444444-||
|-6p0-5p0-3p0-1p0-------------------||
|-----------------------------------||

again RIFF 1 (0:18)

RIFF 1 last time
(last chord is palm muted)
|-----------------------||
|-----------------------||
|-----6\3---------------||
|-5-3-4\1----5-888-5-2--||
|-3-1-----0--3-666-3-0--||
|-----------------------||
  . .                .
RIFF 3 (0:25) both gtr.
|---------------------------------------------------------------------|
|---------------------------------------------------------------------|
|------------------------------------------------------------------6--|
|-8-------5\3-------8\5-------5--8--2-------5\3-------8\5-------5--4--|
|-6-00000-3\1-00000-6\3-00000-3--6--0-00000-3\1-00000-6\3-00000-3-----|
|---------------------------------------------------------------------|
    .....     .....     .....         .....     .....     .....

 ---------------------------------------------------||
 ---------------------------------------------------||
 -----------------------------------6-------6-------||
 -8-------5\3-------8\5-------5--8-4-5-8-5-4-5-3---||
 -6-00000-3\1-00000-6\3-00000-3--6----3-6-3---3-1-0-||
 ---------------------------------------------------||
    .....     .....     .....

BREAK (0:39) both gtr.
|-----------------|
|-----------------|
|-----------------|
|-7---7---7---7---|
|-0---0---0---0---|
|-----------------|
  .   .   .   .

RIFF 4 (0:41) both gtr.
|----3-times-----|-----fourth-----|
|----------------|----------------|
|----------------|----------------|
|----------------|----------5-----|
|-6-000000-6/9---|-6-000000-3-9-9-|
|----------------|----------------|
    ......           ......

RIFF 4 (0:49) gtr. 1
|----3-times-----|-----fourth-----|
|----------------|----------------|
|----------------|----------------|
|----------------|----------5-----|
|-6-000000-6/9---|-6-000000-3-9-9-|
|----------------|----------------|
    ......           ......

RIFF 4 (0:49) gtr. 2
|----3-times-----|-----fourth-------|
|----------------|------------------|
|----------------|------------------|
|----------------|------------------|
|-6-000000-6/12--|-6-000000-6-12-12-|
|----------------|------------------|
    ......           ......

last time both gtr.
|--------------||
|--------------||
|--------------||
|--------------||
|-6-0000-8-8-8-||
|--------6-6-6-||
    .... . . .


RIFF 5a (0:56) gtr. 1
|------------------------------||
|------------------------------||
|------------------------------||
|------------------------------||
|-333333000000-3-0-1-0-6-0-3-0-||
|------------------------------||
               . . . . . . . .

RIFF 5a (0:56) gtr. 2
|------------------------------||
|------------------------------||
|------------------------------||
|------------------------------||
|--------------3-0-1-0-6-0-3-0-||
|------------------------------||
               . . . . . . . .

SOLO (0:58)

RIFF 5b under solo (0:58)
|-----------2-times------------|-----------1-time-------------|
|------------------------------|------------------------------|
|------------------------------|------------------------------|
|------------------------------|------------------------------|
|-333333000000-3-0-1-0-6-0-3-0-|-333333000000-6-0-3-0-3-0-1-0-|
|------------------------------|------------------------------|
               . . . . . . . .                . . . . . . . .

|-----------3-times------------|-----------last-----------||
|------------------------------|--------------------------||
|------------------------------|--------------------------||
|------------------------------|--------------------------||
|-333333000000-3-0-1-0-6-0-3-0-|-333333000000-8--5--5--3--||
|------------------------------|--------------6--3--3--1--||
               . . . . . . . .                .  .  .  .

RIFF 3 (1:10) both gtr. / this time the last three chords are palm muted
|---------------------------------------------------------------------|
|---------------------------------------------------------------------|
|------------------------------------------------------------------6--|
|-8-------5\3-------8\5-------5--8--2-------5\3-------8\5-------5--4--|
|-6-00000-3\1-00000-6\3-00000-3--6--0-00000-3\1-00000-6\3-00000-3-----|
|---------------------------------------------------------------------|
    .....     .....     .....         .....     .....     .....

 ---------------------------------------------------||
 ---------------------------------------------------||
 -----------------------------------6-------6-------||
 -8-------5\3-------8\5-------5--8-4-5-8-5-4-5-3-2-||
 -6-00000-3\1-00000-6\3-00000-3--6----3-6-3---3-1-0-||
 ---------------------------------------------------||
    .....     .....     .....                 . . .

RIFF 4 (1:24)) gtr. 1
|----3-times-----|-----fourth-----|
|----------------|----------------|
|----------------|----------------|
|----------------|----------5-----|
|-6-000000-6/9---|-6-000000-3-9-9-|
|----------------|----------------|
    ......           ......

RIFF 4 (1:24)) gtr. 2
|----------------|----------------|
|----------------|----------------|
|----------------|----------------|
|----------------|----------5-----|
|----------------|----------3-9-9-|
|----------------|----------------|

RIFF 4 both gtr.
|----3-times-----|-----fourth-----|
|----------------|----------------|
|----------------|----------------|
|----------------|----------5-----|
|-6-000000-6/9---|-6-000000-3-9-9-|
|----------------|----------------|
    ......           ......

RIFF 4 (1:32) gtr. 1
|----3-times-----|-----fourth-----|
|----------------|----------------|
|----------------|----------------|
|----------------|----------5-----|
|-6-000000-6/9---|-6-000000-3-9-9-|
|----------------|----------------|
    ......           ......

RIFF 4 (1:32) gtr. 2
|----3-times-----|-----fourth-------|
|----------------|------------------|
|----------------|------------------|
|----------------|------------------|
|-6-000000-6/12--|-6-000000-6-12-12-|
|----------------|------------------|
    ......           ......

last time both gtr.
|----------------||
|----------------||
|----------------||
|----------------||
|-6-0000-8-8-8-7-||
|--------6-6-6-5-||
    .... . . .

END
Tap to rate this tab
# A B C D E F G H I J K L M N O P Q R S T U V W X Y Z