Song name
# A B C D E F G H I J K L M N O P Q R S T U V W X Y Z

Cannibal Corpse - Gutted tab

Cannibal Corpse
Butchered At Birth
Gutted



.  - palm mute           /  - slide up to
\  - slide down to       ~  - vibrato
h  - hammer on           b  - Bend
p  - pull off            Suffixes for bend
t  - tap                 f  - full bend    h - half bend
ph - pinched harmonic    q  - quarter bend t - tap bend
*  - see comment         ^  - Hold bend    r release bend
x  - Stuccatto           ~  - vibrato bend
,  - slight palm mute    () - ghost note, sustained note
"  - tremolo note        <> - Trill

Tuning is D#

Intro x8
|L
|-------------------------|
|-------------------------|
|-------------------------|
|-------------------------|
|-------1-2-0-4-3-0-2-1---|
|-2-1-0-----------------0-|
| . . . . . . . . . . . .
|R (riff A)
|-------------------------|
|-------------------------|
|-------------------------|
|-------------------------|
|-------1-2-0-4-3-0-2-1-0-|
|-2-1-0-------------------|
  . . . . . . . . . . . .

Passage 1 x1
|L (Riff B1)
|-------------------------------------------------------------------------|
|-------------------------------------------------------------------------|
|-------------------------------------------------------------------------|
|-------------------------------------------------------------------------|
|-4-ring------------1-ring------------4-ring------------3-no ring---------|
|-2-----------------1-----------------2-----------------1-----------------|
|
|R (Riff B2)
|-------------------------------------------------------------------------|
|-------------------------------------------------------------------------|
|-------------------------------------------------------------------------|
|-------------------------------------------------------------------------|
|----------21004300-11111111-32002100----------21004300----------32002100-|
|-22222222----------------------------22222222----------11111111----------|


Riff B2 x5

Riff C1 x2
|-----------------------------------------------------------------|
|-----------------------------------------------------------------|
|-----------------------------------------------------------------|
|-----------------------------------------------------------------|
|-2-2-2-2-7\6-5---2-2-2-2-----4---2-2-2-2-5\4-3---2-2-2-2-----4---|
|-0-0-0-0-5\4-3---0-0-0-0-2-3-----0-0-0-0-3\2-1---0-0-0-0-2-3-----|
  . . . .         . . . . . .     . . . .         . . . . . .


Riff C2 x3                                                    |1,3|2
|-------------------------------------------------------------|---|---|
|-------------------------------------------------------------|---|---|
|-------------------------------------------------------------|---|---|
|-------------------------------------------------------------|---|---|
|-2-2-2-2-7\6-5---2-2-2-2-7\6-5---2-2-2-2-5\4-3---2-2-2-2-----|-4-|-1-|
|-0-0-0-0-5\4-3---0-0-0-0-5\4-3---0-0-0-0-3\2-1---0-0-0-0-2-3-|---|---|
  . . . .         . . . .         . . . .         . . . . . .

Riff C3 x1
|-----------------------------------------------------------------|
|-----------------------------------------------------------------|
|-----------------------------------------------------------------|
|-----------------------------------------------------------------|
|-2-2-2-2-7\6-5---2-2-2-2-7\6-5---2-2-2-2-5\4-3---2-2-2-2-5\4-3---|
|-0-0-0-0-5\4-3---0-0-0-0-5\4-3---0-0-0-0-3\2-1---0-0-0-0-3\2-1---|
  . . . .         . . . .         . . . .         . . . .

Riff D1 x6 (tr order = hph)          Riff D2 x4
|-----------------------------------||-----------------|
|-----------------------------------||-----------------|
|-----------------------------------||-----------------|
|-----------------------------------||-----------7---6-|
|-7-6-7-8-7-6-7-8-7-6-7-8-----------||-7-6-7-8-4---3---|
|-5-4-5---5-4-5---5-4-5---1tr2-2tr3-||-5-4-5-----------|
  . . .   . . .   . . .                . . .

Riff E x4                                 |1-3   |4
|-----------------------------------------|------|-----|
|-----------------------------------------|------|-----|
|-----------------------------------------|------|-----|
|-----------------------------------------|------|-----|
|-----------------------------------------|------|-3---|
|-0000-1111-4444-3333-0000-4444-3333-0000-|-1111-|-1---|

Riff D1 x2

Riff F x1 (tr order = hphph)
|-------------------------------------------------------------|
|-------------------------------------------------------------|
|-------------------------------------------------------------|
|-------------------------------------------------------------|
|---------------8-4tr5-3rt4-5-5-5-4-4-2-2tr3-1tr2-3-4-4-------|
|-5tr6-4tr5-5-6-------------3-3-3-2-2-0-----------1-2-2-0-1-5-|
            . .             . . . . . .           . . . . . .

 -------------------------------------------------------------|
 -------------------------------------------------------------|
 -------------------------------------------------------------|
 -------------------------------------------------------------|
 ---------------8-4tr5-3rt4-5-5-5-4-4-2-2tr3-1tr2-3-3-3-2-2-2-|
 -5tr6-4tr5-5-6-------------3-3-3-2-2-0-----------1-1-1-0-0-0-|
            . .             . . . . . .           . . . . . .

Riff G x4 (tr order = hphph)
|---------------------------------------------|
|---------------------------------------------|
|---------------------------------------------|
|---------------------------------------------|
|-----------5-5-5-4-4-2-2tr3-1tr2-3-3-3-2-2-2-|
|-5tr6-4tr5-3-3-3-2-2-0-----------1-1-1-0-0-0-|
            . . . . . .           . . . . . .

Riff A x4

Passage 2 x1
|L
|-------------------------------------------------------------------------|
|-------------------------------------------------------------------------|
|-------------------------------------------------------------------------|
|-4-----------------2-----------------4-----------------2-----------------|
|-2-ring------------2-ring------------2-ring------------2-no ring---------|
|-0-----------------0-----------------0-----------------0-----------------|
|
|R (riff H)
|-------------------------------------------------------------------------|
|-------------------------------------------------------------------------|
|-------------------------------------------------------------------------|
|-------------------------------------------------------------------------|
|-------------------------------------------------------------------------|
|-00000000-32002100-00000000-43003200-00000000-32002100-00000000-21002100-|

Riff H  x3
Riff B2 x2
Riff B1 x1


END
Tap to rate this tab
# A B C D E F G H I J K L M N O P Q R S T U V W X Y Z