Song name
# A B C D E F G H I J K L M N O P Q R S T U V W X Y Z

Cannibal Corpse - Scattered Remains Splattered Brains tab

Cannibal Corpse
Eaten Back to Life
Scattered Remains, Splattered Brains




.  - palm mute           /  - slide up to
\  - slide down to       ~  - vibrato
h  - hammer on           b  - Bend
p  - pull off            Suffixes for bend
t  - tap                 f  - full bend    h - half bend
ph - pinched harmonic    q  - quarter bend t - tap bend
*  - see comment         ^  - Hold bend    r release bend
x  - Stuccatto           ~  - vibrato bend
,  - slight palm mute    () - ghost note, sustained note
"  - tremolo note        <> - Trill

Tuning is D#

Riff A1 x2
|-----------------------------------------------------------------|
|-----------------------------------------------------------------|
|-----------------7-6---6-5---5-4-----------------5-4---4-3---3-2-|
|-----------------5-4---4-3---3-2-----------------5-4---4-3---3-2-|
|-2-------------------------------2-------------------------------|
|-0-------------------0-----0-----0-------------------0-----0-----|
                      .     .                         .     .

Riff A2 x2
|-----------------------------------------------------------------|
|-----------------------------------------------------------------|
|-----------------------------------------------------------------|
|-----------------7-6---6-5---5-4-----------------5-4---4-3---3-2-|
|-2---2---2-2-2-2-5-4---4-3---3-2-2---2---2-2-2-2-5-4---4-3---3-2-|
|-0---0---0-0-0-0-----0-----0-----0---0---0-0-0-0-----0-----0-----|
          . . . .     .     .             . . . .     .     .

Passage x1
|-----------------|
|-----------------|
|-----------------|
|-----------------|
|-2-ring--------8-|
|-0-------------6-|

Riff B x8
|-------------------|
|-------------------|
|-------------------|
|-------------------|
|-88778800-88778877-|
|-66556600-66556600-|

Riff C x2 (hold last chord 2nd time)
|-----------------------------------------|
|-----------------------------------------|
|-----------------------------------------|
|-------------------------------------7---|
|-7777-8888-7777-8888-7777-8888-------5---|
|-5555-6666-5555-6666-5555-6666-5h6h8-----|

 -----------------------------------------|
 -----------------------------------------|
 -----------------------------------------|
 -----------------------------------------|
 -7777-8888-7777-8888-7777-8888-8p6p5-8---|
 -5555-6666-5555-6666-5555-6666-------6---|

 -----------------------------------------|
 -----------------------------------------|
 -----------------------------------------|
 -------------------------------------7---|
 -7777-8888-7777-8888-7777-8888-------5---|
 -5555-6666-5555-6666-5555-6666-5h6h8-----|

 -------------------------------------------|
 -------------------------------------------|
 -------------------------------------------|
 -------------------------------------------|
 -7777-8888-7777-8888-8p6p5-8p6p5-8p6p5-8---|
 -5555-6666-5555-6666-------------------6---|



Passage 2 x1
|L (Riff D)
|---------------------------------------------------------------------|
|---------------------------------------------------------------------|
|------------9-8--------------9-8--------------9-8--------------9-8---|
|-----10-8-7-----8-----10-8-7-----------10-8-7-----8-----10-8-7-------|
|-7-8--------------7-8--------------7-8--------------7-8--------------|
|---------------------------------------------------------------------|
| . .              . .              . .              . .
|R
|----------------------------------------------------------------------|
|----------------------------------------------------------------------|
|----------------------------------------------------------------------|
|------------------3---------------------------------------------------|
|-2----------------1----------------3----------------2-----------------|
|-0---------------------------------1----------------0-----------------|

Riff D x4 (hold last note)

Passage 3 x1
|-----------|
|-----------|
|-----------|
|-----------|
|-8---------|
|-6---------|

Riff B x8
Riff C x1 (hold last chord)

Riff E x6                       |1,3,5     |2,4       |6
|-------------------------------|----------|----------|---------|
|-------------------------------|----------|----------|---------|
|-------------------------------|----------|----------|---------|
|------5----6----5--------------|--------3-|------3-3-|---3-3-3-|
|-3-00-3-00-4-00-3----3----5----|-5----6-1-|-5-11-1-1-|-6-1-1-1-|
|-1----------------00-1-00-4-00-|-3-00-4---|-3--------|-4-------|


END
Tap to rate this tab
# A B C D E F G H I J K L M N O P Q R S T U V W X Y Z