Song name
# A B C D E F G H I J K L M N O P Q R S T U V W X Y Z

Cannibal Corpse - Shredded Humans tab

Cannibal Corpse
Eaten Back to Life
Shredded Humans



.  - palm mute           /  - slide up to
\  - slide down to       ~  - vibrato
h  - hammer on           b  - Bend
p  - pull off            Suffixes for bend
t  - tap                 f  - full bend    h - half bend
ph - pinched harmonic    q  - quarter bend t - tap bend
*  - see comment         ^  - Hold bend    r release bend
x  - Stuccatto           ~  - vibrato bend
,  - slight palm mute    () - ghost note, sustained note
"  - tremolo note        <> - Trill

Tuning is D#

Intro x1
|---------------------------------|
|---------------------------------|
|---------------------------------|
|-3-----3---------3-----3---------|
|-3-----3---------3-----3---------|
|---------------------------------|

Riff A1 x4      1-3 4    Riff B x4
|---------------|---|---||-----------------|
|---------------|---|---||-----------------|
|---------------|---|---||-----------------|
|-3-----3-----3-|---|---||-4-------3-------|
|-3-----3-----3-|---|---||-2-5-4-2-1-4-3-2-|
|---4-3---4-3---|-4-|-0-||---3-2-0---2-1-0-|
    . .   . .     .   .      . . .   . . .

Riff A1 x4
Riff B  x4

Riff A2 x4      1-3 4
|---------------|---|---|
|---------------|---|---|
|---------------|---|---|
|-6-----6-----6-|---|---|
|-6-----6-----6-|---|---|
|---7-6---7-6---|-7-|-0-|
    . .   . .     .   .

Riff B x4

Riff C1 x9           Riff C2 x1
|-------------------||-----------|
|-------------------||-----------|
|-------------------||-----------|
|-------------------||-----------|
|------665------4\3-||------665--|
|-3333-----3333-2\1-||-3333------|

Riff D x4  Riff E x4
|---------||-----------------|
|---------||-----------------|
|---------||-----------------|
|---------||-3-----4---------|
|-4-3-5-4-||-1-4-3-2-5-2-2-2-|
|-2-1-3-2-||---2-1---3-0-0-0-|
  . . . .      . .     . . .

Riff D x4

Riff F x4
|-------------------------|
|-------------------------|
|-------------------------|
|-3-----4-----5-----6-----|
|-3-----4-----5-----6-----|
|---4-0---5-0---6-0---7-0-|
    . .   . .   . .   . .

Riff D x4
Riff F x4
Riff D x12
Riff E x12

Riff G x2
|-----------------|
|-----------------|
|-----------------|
|-5-4---3---------|
|-3-2-5-1-4-2-2-2-|
|-----3---2-0-0-0-|
      .     . . .

Riff E x4
Riff D x2

Riff H x4
|-----------------------------------------|
|-----------------------------------------|
|-----------------------------------------|
|-----------------------------------------|
|-1100-1100-1100------1100-1100-4444-3333-|
|----------------1111---------------------|

Riff C1 x7
Riff C2 x1
Riff D  x2
Riff H  x4

Riff C1 x7
Riff C2 x1
Riff D  x2

Riff I x4
|-------------------------------------------------|
|-------------------------------------------------|
|-------------------------------------------------|
|-------------------------------------------------|
|---665---887---998-2-2-2---665---998---887-2-2-2-|
|-3-----5-----6-----0-0-0-3-----6-----5-----0-0-0-|
  .     .     .     . . . .     .     .     . . .

Riff J1 x2
|------------------------------------------------------|
|------------------------------------------------------|
|------------------------------------------------------|
|------------------------------------------------------|
|-444444-333333-2-2-2-2-2-2-444444-333333-2-2-2-111111-|
|-222222-111111-0-0-0-0-0-0-222222-111111-0-0-0--------|
                . . . . . .               . . .

Riff J2 x2 (under solo I)
|---------------------------------------------------|
|---------------------------------------------------|
|---------------------------------------------------|
|---------------------------7-----8-----------------|
|-444444-333333-2-2-2-2-2-2-5-----6-----2-2-2-2-2-2-|
|-222222-111111-0-0-0-0-0-0-5-----6-----0-0-0-0-0-0-|
                . . . . . .             . . . . . .

Riff J1 x2

Riff J3 x1 (under solo II)
|---------------------------------------------------|
|---------------------------------------------------|
|---------------------------------------------------|
|---------------------------7-----6-----------------|
|-444444-333333-2-2-2-2-2-2-5-----4-----2-2-2-2-2-2-|
|-222222-111111-0-0-0-0-0-0-5-----4-----0-0-0-0-0-0-|
                . . . . . .             . . . . . .

Riff J2 x2


Outro
|      x10|       x4|      x17|      x1|
|---------|---------|---------|--------|
|---------|---------|---------|--------|
|---------|---------|---------|--------|
|---------|---------|---------|--------|
|-4-3-5-4-|-3-4-3-6-|-4-3-5-4-|-2------|
|-2-1-3-2-|-1-2-1-4-|-2-1-3-2-|-0------|
  . . . .   . . . .   . . . .

Solo I
'w' use whammy and listen to the song to get the vibratos right.

|-14w17w---14w17-14w12---17w21w15w20--15-17-15------------|
|-------12-------------------------------------17w15w17---|
|---------------------------------------------------------|
|---------------------------------------------------------|
|---------------------------------------------------------|
|---------------------------------------------------------|

play fast
 ------------------------20-19-17-20-19-------------------------19~ --|
 -17-19-20-1717-19-20-17----------------19-17h19-17h19-17h19-17-------|
 ---------------------------------------------------------------------|
 ---------------------------------------------------------------------|
 ---------------------------------------------------------------------|
 ---------------------------------------------------------------------|

 -17p15-18-17-15----------------15h17----17hbr~ ----------|
 ----------------17-15-16tr(17)-------16------------------|
 ---------------------------------------------------------|
 ---------------------------------------------------------|
 ---------------------------------------------------------|
 ---------------------------------------------------------|




Solo II
|-17w12---------------------------------------------15w9----------|
|-ph------------------------------------------------ph------------|
|-----------------------------------------------------------------|
|---------harmonics-----------------------------------------------|
|---------7w3w6w3w8-----------------------------------------------|
|---------7w3w6w3w8--'improv slides on 6th string'----------------|

 play fast
 tremolo pick these------------------------------------------|
 ----------------------------------10-9-12-9-----------------|
 ------------------------9----11-9-----------11-9------------|
 ----------------9-10------12---------------------12-10-8----|
 ----10-13-10-12------12-----------------------------------9-|
 -12---------------------------------------------------------|

 ------------------------------------------|
 --------------8-11-8-12-8-----------------|
 ----7-10-8-10-----------------------------|
 -789----------------------ph--------------|
 --------------------------10w13w5---------|
 ------------------------------------------|


END
Tap to rate this tab
# A B C D E F G H I J K L M N O P Q R S T U V W X Y Z