Song name
# A B C D E F G H I J K L M N O P Q R S T U V W X Y Z

Cannibal Corpse - The Pick-axe Murders tab

Cannibal Corpse
The Bleeding
The Pick-Axe Murders

.  - palm mute
\  - slide down to
/  - slide up to
h  - hammer on
p  - pull off
t  - tap
ph - pinch harmonic
~  - vibrato
b  - bend
r  - release bend
tr - trill
x  - mute
*  - comment

Tuning: Eb Ab Db Gb Bb Eb


---------------------------
SOLO IS PLAYED BY JACK OWEN
---------------------------


|-----------------------------------------------------------------------|
|-15-12-0-0-15-12-0-0-12-9-0-0-12-9-0-0-9-6-0-0-9-6-0-0-6-3-0-0-6-3-0-0-|
|-----------------------------------------------------------------------|
|-----------------------------------------------------------------------|
|-----------------------------------------------------------------------|
|-----------------------------------------------------------------------|



------------------------------------------------------------------------|
--15-12-0-0-15-12-0-0-12-9-0-0-12-9-0-0-9-6-0-0-9-6-0-0-6-3-0-0-6-3-0-0-|
------------------------------------------------------------------------|
------------------------------------------------------------------------|
------------------------------------------------------------------------|
------------------------------------------------------------------------|



------------------------------------------------------------------------|
----------------------------------------------6h9p6---------------------|
--7h10p7-------------------------------7h10p7-------7h10p7--------------|
---------6h9p6-------------------6h9p6---------------------6h9p6--------|
---------------5h8p5-------5h8p5---------------------------------5h8p5--|
---------------------4h7p4----------------------------------------------|



------------------------------------------------------------------------|
---------------------------6h9p6-/--17----------------------------------|
--------------------7h10p7-------/--19b21~~~~~~~~~~~~~~~~~~~~~~~~~~~~~~-|
--------------6h9p6-----------------------------------------------------|
--------5h8p5-----------------------------------------------------------|
--4h7p4-----------------------------------------------------------------|

DONE!
Tap to rate this tab
# A B C D E F G H I J K L M N O P Q R S T U V W X Y Z