Song name
# A B C D E F G H I J K L M N O P Q R S T U V W X Y Z

Cannibal Corpse - Staring Through The Eyes Of The Dead tab

Cannibal Corpse
The Bleeding
Staring Through The Eyes Of The Dead

.  - palm mute
\  - slide down to
/  - slide up to
h  - hammer on
p  - pull off
t  - tap
ph - pinch harmonic
~  - vibrato
b  - bend
r  - release bend
tr - trill
x  - mute
*  - comment

Tuning: Eb Ab Db Gb Bb Eb

Guitar I - Rob Barret (Right channel
Guitar II - Jack Owen (Left channel)



Figure 1 x1
|---------------|
|---------------|
|---------------|
|---------------|
|-/8-----/8---8-|
|-/6---0-/6---6-|
       .



Figure 2 x2
|----------------------------------------------|
|----------------------------------------------|
|----------------------------------------------| GUITAR I
|----------------------------------------------|
|-----------------------------------6tr9-------|
|-0-000-6tr9-3tr6---0-000-6tr9-3tr6------------|
  . ...             . ...

-----------------------------------------------|
-----------------------------------------------|
-----------------------------------------------|
-----------------------------------------------|
------------------------------------6tr9-9tr11-|
--0-000-6tr9-3tr6---0-000-6tr9-3tr6------------|
  . ...             . ...




|----------------------------------------------|
|----------------------------------------------|
|----------------------------------------------| GUITAR II
|----------------------------------------------|
|-----------------------------------6tr9-------|
|-0-000-6tr9-3tr6---0-000-6tr9-3tr6------------|
  . ...             . ...

-----------------------------------------------|
-----------------------------------------------|
-----------------------------------------------|
-----------------------------------------------|
------------------------------------6tr9-5tr8--|
--0-000-6tr9-3tr6---0-000-6tr9-3tr6------------|
  . ...             . ...



Repeat Figure 1 x1
Repeat Figure 2 x2
Repeat Figure 1 x1



Figure 3 x4
|-----------------------------------------------|
|-----------------------------------------------|
|-----------------------------------------------| GUITAR I
|-----------------------------------------------|
|-----------------------------------------------|
|-666666666666-999999999999-666666666666---6tr9-|
  ............ ............ ............



|-----------------------------------------------|
|-----------------------------------------------|
|-----------------------------------------------| GUITAR II
|-----------------------------------------------|
|-----------------------------------------------|
|-333333333333-666666666666-333333333333---6tr9-|
  ............ ............ ............



Repeat Figure 2 x2
Repeat Figure 1 x1



Figure 4A x4
|--------------------------|
|--------------------------|
|--------------------------|
|--------------------------|
|-11-8---9-8---8-5---5-4---|
|-9--6-0-7-6-0-6-3-0-3-2-0-|
  .  . . . . . . . . . . .



Figure 4B x3
|--------------------------|
|--------------------------|
|--------------------------|
|--------------------------|
|-11-8---9-8---8-5---5-4---|
|-9--6-0-7-6-0-6-3-0-3-2-0-|



Figure 4C x1
|-----------------------------|
|-----------------------------|
|-----------------------------|
|-----------------------------|
|-11-8---9-8---8-5---5-4---/8-|
|-9--6-0-7-6-0-6-3---3-2---/6-|



Figure 5A x8
|---------------------------------|
|---------------------------------|
|---------------------------------| GUITAR I
|---------------------------------|
|------------------3h4p3p0---/8-8-|
|-00000000-0h2h3h4-----------/6-6-|
  ........



|---------------------------------|
|---------------------------------|
|---------------------------------| GUITAR II
|---------------------------------|
|------------------3h4p3h4---/8-8-|
|-00000000-2h3p2h3-----------/6-6-|
  ........



Figure 5B x3
|---------------------------------|
|---------------------------------|
|---------------------------------|
|---------------------------------|
|----------/8-8-------------/8-8--|
|-00000000-/6-6----00000000-/6-6--|
  ........         ........

----------------------------------|
----------------------------------|
----------------------------------|
----------------------------------|
-----------/11-11---------------8-|
--00000000-/9--9----9-6-0-0-6-7-8-|
  ........          . . . . . .



Figure 5C x1
|---------------------------------------------------|
|---------------------------------------------------|
|---------------------------------------------------|
|---------------------------------------------------|
|----------/8-8-------------/8-8-------------/11-11-|
|-00000000-/6-6----00000000-/6-6----00000000-/9--9--|
  ........         ........         ........



Figure 6A x2
|--------------|     |--------------|
|--------------|     |--------------|
|--------------|x3   |--------------|x1
|--------------|     |--------9---9-|
|-11-8---9-8---|     |-11-8---7---7-|
|-9--6-0-7-6-0-|     |-9--6-0-------|
  .  . . . . .         .  . .



Figure 6B x2
|--------------|     |--------------|
|--------------|     |--------------|
|--------------|x3   |--------------|x1
|--------------|     |--------9---9-|
|-11-8---9-8---|     |-11-8---7---7-|
|-9--6-0-7-6-0-|     |-9--6-0-------|



Repeat Figure 5A x4
Repeat Figure 5B x3
Repeat Figure 5C x1



Figure 7 x1
|-------------------------------------|
|-----5-------8-------5---------------|
|-6---4---3---7---6---4---------------| GUITAR I
|-6---2---3---5---6---2---------------|
|-4---2---1-------4---2---------------|
|-------------------------/6~\---/9~\-|



|-------------------------------------|
|-------------------------------------|
|-3-------3-------3-------3-----------| GUITAR II
|-3---2---3---2---3---2---3------2----|
|-1---2---1---2---1---2---1------2----|
|-------------------------------------|



Repeat Figure 6A x2
Repeat Figure 6B x1



Figure 8 x3
|--------------|
|--------------|
|--------------|x3
|--------------|
|-11-8---9-8---|
|-9--6-0-7-6-0-|



Figure 9 x1
|----------------|
|----------------|
|----------------|
|----------------|
|-8-5---5-4---/8-|
|-6-3---3-2---/6-|



Repeat Figure 5A x4
Repeat Figure 5B x4
Repeat Figure 5A x2



Figure 10 x8
|---------------------------------|
|---------------------------------|
|---------------------------------| GUITAR I
|---------------------------------|
|------------------3h4p3p0--------|
|-00000000-0h2h3h4-----------/9-9-|
  ........



|---------------------------------|
|---------------------------------|
|---------------------------------| GUITAR II
|---------------------------------|
|------------------3h4p3h4---/8-8-|
|-00000000-2h3p2h3-----------/6-6-|
  ........



Figure 11A x1
|-----------------------------|
|-----------------------------|
|-----------------------------|
|-----------------------------|
|-8-5---5-4---/8-8------------|
|-6-3---3-2---/6-6-00000000---|
                   ........



Figure 11B x2
|---------------------------|
|---------------------------|
|---------------------------|
|---------------------------|
|-8-5---5-4---/8-8----------|
|-6-3---3-2---/6-6-00000000-|
        . .        ........



Figure 11C x1
|---------------------------|* Let the last chord
|---------------------------|  ring
|---------------------------|
|---------------------------|
|-8-5---5-4---/8-8----------|
|-6-3---3-2---/6-6----------|
        . .



End with this
|---|
|---|
|---|
|---|
|-2-|
|-0-|

DONE!
Tap to rate this tab
 
# A B C D E F G H I J K L M N O P Q R S T U V W X Y Z