Song name
# A B C D E F G H I J K L M N O P Q R S T U V W X Y Z

Cannibal Corpse - Priests Of Sodom tab

Priests of Sodom - Cannibal Corpse

Tuning (low to high) A# D# G# C# F A#

Guitar 1 - Pat O'Brien
Guitar 2 - Rob Barrett

I don't know the solo again, sorry guys. And I suggest using a 7 seven string
guitar for this song since the tuning is so low but anyway.

Riff 1 - Both Gtrs.
A# ---------------------------------------------------------||
F  ---------------------------------------------------------||
C# ---------------------------------------------------------||
G# -5---8---7---4-------------------------------------5---8-||
D# -x---x---x---x-3-3-3-3-3-3-3-3-3-3-3-3-9-6-0-7-6-0-x---x-||
A# -3---6---5---2-------------------------------------3---6-||
                  . . . . . . . . . . . . . . . . . .

Chorus - Both Gtrs.
A# -------------------------------------------------------------------------|
F  -------------------------------------------------------------------------|
C# ------------------------------------------------------6------------------|
G# -----5------3------------------------------------8--5-x--------------6-6-|
D# -----x------x----4-4-7-7-7-7-8-8-8-8-5-5-5-5-----x--x-4--8-8-7-7-7-7-----|
A# -0-0-3--0-0-1--0-----------------------------0-0-6--3--------------------|
    . .    . .    .                             . .

A# ----------------------------------------------------------------||
F  ----------------------------------------------------------------||
C# --------------------------------------------------------7-------||
G# -----------5------4-------------------------------------x-------||
D# -5-5-5-----x------x---4-4-7-7-7-7-8-8-8-8-5-5-5-5-------5-------||
A# -------0-0-3--0-0-1-0-----------------------------0-0-0-----0-0-||
          . .    . .   .                             . . .     . .

Verse - Both Gtrs.
A# ---------------------------------------------------------------||
F  ---------------------------------------------------------------||
C# ---------------------------------------------------------------||
G# -------------------------------5---------------------5---------||
D# -----------4-------------------x---------------------x-2-2-2-2-||
A# -1-4-3-1-3---0-4-4-1-0-7-7-4-0-3-0-0-4-4-1-0-7-7-4-0-3-0-0-0-0-||
    . . . . .   .       .       .   . .       .       .   . . . .

Break 1 - Both Gtrs.
A# ------||
F  ------||
C# ------||
G# -5--8-||
D# -x--x-||
A# -3--6-||

Break 2 - Both Gtrs.
A# ------||
F  ------||
C# ------||
G# -7--4-||
D# -7--4-||
A# -5--2-||

Riff 2 - Gtr 1
A# ---------------------------||
F  ---------------------------||
C# ---------------------------||
G# ---------------------------||
D# -8-5-0-7-4-0-5-2-0-------5-||
A# -------------------6-3-0-3-||
    . . . . . . . . . . . .

Riff 2 - Gtr 2
A# -----------------------------------||
F  -----------------------------------||
C# -----------------------------------||
G# -----------------------------------||
D# -8-5-0-7-4-0-5-2-0-------5-5-5-5-5-||
A# -------------------6-3-0-3-3-3-3-3-||
    . . . . . . . . . . . .   . . . .

Riff 3 - Both Gtrs.
A# ---------------------------------------------------------||
F  ---------------------------------------------------------||
C# ---------------------------------------------------------||
G# ---------------------------------------------------------||
D# -8-5-0-7-4-0-5-2-0---------------------------------------||
A# -------------------6-3-3-3-3-3-3-6-3-0-7-4-0-6-3-0-7-4-0-||
    . . . . . . . . . . . . . . . . . . . . . . . . . . . .

Riff 4 - Both Gtrs.
A# ---------------------------------------||
F  ---------------------------------------||
C# ---------------------------------------||
G# ---------------------------------------||
D# -8-5-0-7-4-0-5-2-----------------------||
A# -----------------6-3-0-7-4-0-6-3-0-7-4-||
    . . . . . . . . . . . . . . . . . . .

Riff 5
A# ------------------------------------------------------||
F  ------------------------------------------------------||
C# ------------------------------------------------------||
G# ------------------------------------------------------||
D# ------------------------------------------------------||
A# -7p6p4-7p6p4-7p6p4-9p7p6-7p6p4-7p6p4-7p6p4-10p9p7-0-0-||
    . . . . . . . . . . . . . . . . . . . . . .  . . . .

Riff 6 - Both Gtrs.
A# ----------------------------------------------------------||
F  ----------------------------------------------------------||
C# ----------------------------------------------------------||
G# ----------------------------------------------------------||
D# ----------------------------------------------------------||
A# -7p6p4-0-0-7p6p4-0-6h7h9-0-7p6p4-0-0-7p6p4-0-7h9h10-0-0-0-||
    . . . . . . . . . . . . . . . . . . . . . . . . .  . . .

Riff 7 - Both Gtrs.
A# --------------------------------------||
F  --------------------------------------||
C# ----------------------------6--9--8-5-||
G# -5---8---7---4--8--11-10-7--x--x--x-x-||
D# -x---x---x---x--x--x--x--x--4--7--6-3-||
A# -3---6---5---2--6--9--8--5------------||

Outro - Both Gtrs.
A# ---||
F  ---||
C# ---||
G# -11||
D# -x-||
A# -9-||
Tap to rate this tab
# A B C D E F G H I J K L M N O P Q R S T U V W X Y Z