Song name
# A B C D E F G H I J K L M N O P Q R S T U V W X Y Z

Cannibal Corpse - Priests Of Sodom tab

                               Priests of Sodom


     Q.                          Q.        Q.     Q.
E||-------------------------------------|----------------|
B||-------------------------------------|----------------|
G||-------------------------------------|----------------|
D||--5---------------------------8------|--7------4------|
A||--x---------------------------x------|--x------x------|
E||--3---------------------------6------|--5------2------|


  PM PM PM PM PM PM PM PM PM PM PM PM    PM PM PM PM PM PM
  S  S  S  S  S  S  S  S  S  S  S  S     E  E  E  E  E  E     Q.     Q.
--------------------------------------|--------------------|----------------|
--------------------------------------|--------------------|----------------|
--------------------------------------|--------------------|----------------|
--------------------------------------|--------------------|--5------8------|
--3--3--3--3--3--3--3--3--3--3--3--3--|--0--9--6--7--6--0--|--x------x------|
--------------------------------------|--------------------|--3------6------|


    PM PM         PM         PM
    E  E  Q.      E  Q       E  S S S S S S S S S S S S S S
|-------------------------|---------------------------------|
|-------------------------|---------------------------------|
|*------------------------|---------------------------------|
|*--------5b---------3----|---------------------------------|
|---2--2--x-------2--x----|-----4-4-7-7-7-7-8-8-8-8-5-5-5-5-|
|---0--0--3b------0--1----|--0------------------------------|


  PM PM              PM         PM
  E  E  Q.      Q    E     Q    E  S S S S S S S S S S
------------------------|------------------------------|
------------------------|------------------------------|
------------------------|--6---------------------------|
--------8b------5-------|--x-----------------6-6-------|
--2--2--x-------x----2--|--4-------8-8-7-7-7-----5-5-5-|
--0--0--6b------3----0--|-------0----------------------|


  PM PM         PM         PM
  E  E  Q.      E  Q       E  S S S S S S S S S S S S S S
------------------------|---------------------------------|
------------------------|---------------------------------|
------------------------|---------------------------------|
--------5b---------3----|---------------------------------|
--2--2--x-------2--x----|-----4-4-7-7-7-7-8-8-8-8-5-5-5-5-|
--0--0--3b------0--1----|--0------------------------------|


     PM PM         PM PM
  E  E  E  Q.      E  E       Q.     Q.        Q.     Q.
--------------------------||----------------|----------------|
--------------------------||----------------|----------------|
-----------7b------------*||----------------|----------------|
-----------x-------------*||--5------8------|--7------4------|
--0--2--2--5b------2--2---||--x------x------|--x------x------|
-----0--0----------0--0---||--3------6------|--5------2------|


  PM PM PM PM PM PM PM PM PM PM PM PM    PM PM PM PM PM PM
  S  S  S  S  S  S  S  S  S  S  S  S     E  E  E  E  E  E     Q.     Q.
--------------------------------------|--------------------|----------------|
--------------------------------------|--------------------|----------------|
--------------------------------------|--------------------|----------------|
--------------------------------------|--------------------|--5------8------|
--3--3--3--3--3--3--3--3--3--3--3--3--|--0--9--6--7--6--0--|--x------x------|
--------------------------------------|--------------------|--3------6------|


    PM PM PM PM PM    PM PM    PM PM PM PM PM PM PM PM
    E  E  E  E  E  E  E  E     S  S  E  E  S  S  E  E  Q
|---------------------------|--------------------------------|
|---------------------------|--------------------------------|
|*--------------------------|--------------------------------|
|*--------------------------|--------------------------5b----|
|------------------4--------|--------------------------x-----|
|---1--4--3--1--3-----1--3--|--4h-4p-1--0--7h-7p-4--0--3b----|


  PM PM PM PM PM PM PM PM PM PM          PM PM PM PM PM PM
  E  E  S  S  E  E  S  S  E  E     Q     E  E  E  E  E  E
--------------------------------|--------------------------|
--------------------------------|--------------------------|
--------------------------------|--------------------------|
--------------------------------|--5b----------------------|
--------------------------------|--x-----------------------|
--0--0--4h-4p-1--0--7h-7p-4--0--|--3b----0--0--0--0--0--0--|


  PM PM PM PM PM    PM PM    PM PM PM PM PM PM PM PM
  E  E  E  E  E  E  E  E     S  S  E  E  S  S  E  E  Q
--------------------------|--------------------------------|
--------------------------|--------------------------------|
--------------------------|--------------------------------|
--------------------------|--------------------------5b----|
-----------------4--------|--------------------------x-----|
--1--4--3--1--3-----1--3--|--4h-4p-1--0--7h-7p-4--0--3b----|


  PM PM PM PM PM PM PM PM PM PM          PM PM PM PM PM PM
  E  E  S  S  E  E  S  S  E  E     Q     E  E  E  E  E  E       Q.     Q.
--------------------------------|---------------------------||---------------|
--------------------------------|---------------------------||---------------|
--------------------------------|--------------------------*||---------------|
--------------------------------|--5b----------------------*||--5------8-----|
--------------------------------|--x------------------------||--x------x-----|
--0--0--4h-4p-1--0--7h-7p-4--0--|--3b----0--0--0--0--0--0---||--3------6-----|


  PM PM         PM         PM
  E  E  Q.      E  Q       E  S S S S S S S S S S S S S S
------------------------|---------------------------------|
------------------------|---------------------------------|
------------------------|---------------------------------|
--------5b---------3----|---------------------------------|
--2--2--x-------2--x----|-----4-4-7-7-7-7-8-8-8-8-5-5-5-5-|
--0--0--3b------0--1----|--0------------------------------|


  PM PM              PM         PM
  E  E  Q.      Q    E     Q    E  S S S S S S S S S S
------------------------|------------------------------|
------------------------|------------------------------|
------------------------|--6---------------------------|
--------8b------5-------|--x-----------------6-6-------|
--2--2--x-------x----2--|--4-------8-8-7-7-7-----5-5-5-|
--0--0--6b------3----0--|-------0----------------------|


  PM PM         PM         PM
  E  E  Q.      E  Q       E  S S S S S S S S S S S S S S
------------------------|---------------------------------|
------------------------|---------------------------------|
------------------------|---------------------------------|
--------5b---------3----|---------------------------------|
--2--2--x-------2--x----|-----4-4-7-7-7-7-8-8-8-8-5-5-5-5-|
--0--0--3b------0--1----|--0------------------------------|


     PM PM         PM PM
  E  E  E  Q.      E  E     Q.     Q.        Q.     Q.
-------------------------|----------------|----------------|
-------------------------|----------------|----------------|
-----------7b------------|----------------|----------------|
-----------x-------------|--5------8------|--7------4------|
--0--2--2--5b------2--2--|--x------x------|--x------x------|
-----0--0----------0--0--|--3------6------|--5------2------|


  PM PM PM PM PM PM PM PM PM PM PM PM    PM PM PM PM PM PM
  S  S  S  S  S  S  S  S  S  S  S  S     E  E  E  E  E  E     Q.     Q.
--------------------------------------|--------------------|----------------|
--------------------------------------|--------------------|----------------|
--------------------------------------|--------------------|----------------|
--------------------------------------|--------------------|--5------8------|
--3--3--3--3--3--3--3--3--3--3--3--3--|--0--9--6--7--6--0--|--x------x------|
--------------------------------------|--------------------|--3------6------|


    PM PM PM PM PM    PM PM    PM PM PM PM PM PM PM PM
    E  E  E  E  E  E  E  E     S  S  E  E  S  S  E  E  Q
|---------------------------|--------------------------------|
|---------------------------|--------------------------------|
|*--------------------------|--------------------------------|
|*--------------------------|--------------------------5b----|
|------------------4--------|--------------------------x-----|
|---1--4--3--1--3-----1--3--|--4h-4p-1--0--7h-7p-4--0--3b----|


  PM PM PM PM PM PM PM PM PM PM          PM PM PM PM PM PM
  E  E  S  S  E  E  S  S  E  E     Q     E  E  E  E  E  E
--------------------------------|--------------------------|
--------------------------------|--------------------------|
--------------------------------|--------------------------|
--------------------------------|--5b----------------------|
--------------------------------|--x-----------------------|
--0--0--4h-4p-1--0--7h-7p-4--0--|--3b----0--0--0--0--0--0--|


  PM PM PM PM PM    PM PM    PM PM PM PM PM PM PM PM
  E  E  E  E  E  E  E  E     S  S  E  E  S  S  E  E  Q
--------------------------|--------------------------------|
--------------------------|--------------------------------|
--------------------------|--------------------------------|
--------------------------|--------------------------5b----|
-----------------4--------|--------------------------x-----|
--1--4--3--1--3-----1--3--|--4h-4p-1--0--7h-7p-4--0--3b----|


  PM PM PM PM PM PM PM PM PM PM          PM PM PM PM PM PM
  E  E  S  S  E  E  S  S  E  E     Q     E  E  E  E  E  E       Q.     Q.
--------------------------------|---------------------------||---------------|
--------------------------------|---------------------------||---------------|
--------------------------------|--------------------------*||---------------|
--------------------------------|--5b----------------------*||--5------8-----|
--------------------------------|--x------------------------||--x------x-----|
--0--0--4h-4p-1--0--7h-7p-4--0--|--3b----0--0--0--0--0--0---||--3------6-----|


    PM PM         PM         PM
    E  E  Q.      E  Q       E  S S S S S S S S S S S S S S
|-------------------------|---------------------------------|
|-------------------------|---------------------------------|
|*------------------------|---------------------------------|
|*--------5b---------3----|---------------------------------|
|---2--2--x-------2--x----|-----4-4-7-7-7-7-8-8-8-8-5-5-5-5-|
|---0--0--3b------0--1----|--0------------------------------|


  PM PM              PM         PM
  E  E  Q.      Q    E     Q    E  S S S S S S S S S S
------------------------|------------------------------|
------------------------|------------------------------|
------------------------|--6---------------------------|
--------8b------5-------|--x-----------------6-6-------|
--2--2--x-------x----2--|--4-------8-8-7-7-7-----5-5-5-|
--0--0--6b------3----0--|-------0----------------------|


  PM PM         PM         PM
  E  E  Q.      E  Q       E  S S S S S S S S S S S S S S
------------------------|---------------------------------|
------------------------|---------------------------------|
------------------------|---------------------------------|
--------5b---------3----|---------------------------------|
--2--2--x-------2--x----|-----4-4-7-7-7-7-8-8-8-8-5-5-5-5-|
--0--0--3b------0--1----|--0------------------------------|


     PM PM         PM PM                         PM PM PM PM PM PM PM PM
  E  E  E  Q.      E  E       Q.     Q.          E  E  E  E  E  E  E  E
--------------------------||----------------||---------------------------|
--------------------------||----------------||---------------------------|
-----------7b------------*||----------------||*--------------------------|
-----------x-------------*||--7------4------||*--------------------------|
--0--2--2--5b------2--2---||--7------4------||---8--5-----7--4--0--5-----|
-----0--0----------0--0---||--5------2------||---------6--------------7--|


  PM PM PM PM PM PM PM PM       PM PM PM PM PM PM PM PM
  E  E  E  E  E  E  E  E   4x   E  E  E  E  E  E  E  E
---------------------------||---------------------------|
---------------------------||---------------------------|
--------------------------*||*--------------------------|
--------------------------*||*--------------------------|
---------------------------||---8--5-----7--4--0--5-----|
--6--3--0--3--3--3--3--3---||---------6--------------7--|


  PM PM PM PM PM PM PM PM PM PM PM    PM PM PM PM PM PM PM PM
  E  S  S  S  S  S  S  E  E  E  E     E  E  E  E  E  E  E  E
-----------------------------------|---------------------------||
-----------------------------------|---------------------------||
-----------------------------------|--------------------------*||
-----------------------------------|--------------------------*||
-----------------------------------|---------------------------||
--6--3--3--3--3--3--3--6--3--0--7--|--4--0--6--3--0--7--4--0---||


   PM PM PM PM PM PM PM PM    PM PM PM PM PM PM PM PM
   E  E  E  E  E  E  E  E     E  E  E  E  E  E  E  E   4x
---------------------------|---------------------------||
---------------------------|---------------------------||
*--------------------------|--------------------------*||
*--------------------------|--------------------------*||
---8--5-----7--4--0--5-----|---------------------------||
---------6--------------7--|--6--3--0--7--4--0--6--3---||


   PM PM PM PM PM PM PM PM PM PM PM PM
   S  S  E  S  S  E  S  S  E  S  S  E
---------------------------------------|
---------------------------------------|
*--------------------------------------|
*--------------------------------------|
---------------------------------------|
---7p-6p-4--7p-6p-4--7p-6p-4--9p-7p-6--|


  PM PM PM PM PM PM PM PM PM  PM PM PM PM PM
  S  S  E  S  S  E  S  S  E   S  S  E  E  E   4x
----------------------------------------------||
----------------------------------------------||
---------------------------------------------*||
---------------------------------------------*||
----------------------------------------------||
--7p-6p-4--7p-6p-4--7p-6p-4--10p-9p-7--0--0---||


   PM PM PM PM PM PM PM PM PM PM PM PM PM
   S  S  E  E  E  S  S  E  E  S  S  E  E
------------------------------------------|
------------------------------------------|
*-----------------------------------------|
*-----------------------------------------|
------------------------------------------|
---7p-6p-4--0--0--7p-6p-4--0--6h-7h-9--0--|


  PM PM PM PM PM PM PM PM PM PM PM  PM PM PM PM
  S  S  E  E  E  S  S  E  E  S  S   E  E  E  E   4x   Q.     Q.
-------------------------------------------------||-----------------|
-------------------------------------------------||-----------------|
------------------------------------------------*||*----------------|
------------------------------------------------*||*--5------8------|
-------------------------------------------------||---x------x------|
--7p-6p-4--0--0--7p-6p-4--0--7h-9h-10--0--0--0---||---3------6------|


                   PM PM PM PM PM    PM PM    PM PM PM PM PM PM PM PM
  Q.     Q.        E  E  E  E  E  E  E  E     S  S  E  E  S  S  E  E  Q
----------------|--------------------------|--------------------------------|
----------------|--------------------------|--------------------------------|
----------------|--------------------------|--------------------------------|
--7------4------|--------------------------|--------------------------5b----|
--x------x------|-----------------4--------|--------------------------x-----|
--5------2------|--1--4--3--1--3-----1--3--|--4h-4p-1--0--7h-7p-4--0--3b----|


  PM PM PM PM PM PM PM PM PM PM          PM PM PM PM PM PM
  E  E  S  S  E  E  S  S  E  E     Q     E  E  E  E  E  E
--------------------------------|--------------------------|
--------------------------------|--------------------------|
--------------------------------|--------------------------|
--------------------------------|--5b----------------------|
--------------------------------|--x-----------------------|
--0--0--4h-4p-1--0--7h-7p-4--0--|--3b----0--0--0--0--0--0--|


  PM PM PM PM PM    PM PM    PM PM PM PM PM PM PM PM
  E  E  E  E  E  E  E  E     S  S  E  E  S  S  E  E  Q
--------------------------|--------------------------------|
--------------------------|--------------------------------|
--------------------------|--------------------------------|
--------------------------|--------------------------5b----|
-----------------4--------|--------------------------x-----|
--1--4--3--1--3-----1--3--|--4h-4p-1--0--7h-7p-4--0--3b----|


  PM PM PM PM PM PM PM PM PM PM          PM PM PM PM PM PM
  E  E  S  S  E  E  S  S  E  E     Q     E  E  E  E  E  E
--------------------------------|--------------------------|
--------------------------------|--------------------------|
--------------------------------|--------------------------|
--------------------------------|--5b----------------------|
--------------------------------|--x-----------------------|
--0--0--4h-4p-1--0--7h-7p-4--0--|--3b----0--0--0--0--0--0--|


  PM PM PM PM PM    PM PM    PM PM PM PM PM PM PM PM
  E  E  E  E  E  E  E  E     S  S  E  E  S  S  E  E  Q
--------------------------|--------------------------------|
--------------------------|--------------------------------|
--------------------------|--------------------------------|
--------------------------|--------------------------5b----|
-----------------4--------|--------------------------x-----|
--1--4--3--1--3-----1--3--|--4h-4p-1--0--7h-7p-4--0--3b----|


  PM PM PM PM PM PM PM PM PM PM          PM PM PM PM PM PM
  E  E  S  S  E  E  S  S  E  E     Q     E  E  E  E  E  E
--------------------------------|--------------------------|
--------------------------------|--------------------------|
--------------------------------|--------------------------|
--------------------------------|--5b----------------------|
--------------------------------|--x-----------------------|
--0--0--4h-4p-1--0--7h-7p-4--0--|--3b----0--0--0--0--0--0--|


  PM PM PM PM PM    PM PM    PM PM PM PM PM PM PM PM
  E  E  E  E  E  E  E  E     S  S  E  E  S  S  E  E  Q
--------------------------|--------------------------------|
--------------------------|--------------------------------|
--------------------------|--------------------------------|
--------------------------|--------------------------5b----|
-----------------4--------|--------------------------x-----|
--1--4--3--1--3-----1--3--|--4h-4p-1--0--7h-7p-4--0--3b----|


  PM PM PM PM PM PM PM PM PM PM          PM PM PM PM PM PM
  E  E  S  S  E  E  S  S  E  E     Q     E  E  E  E  E  E       Q.     Q.
--------------------------------|--------------------------||----------------|
--------------------------------|--------------------------||----------------|
--------------------------------|--------------------------||*---------------|
--------------------------------|--5b----------------------||*--5------8-----|
--------------------------------|--x-----------------------||---x------x-----|
--0--0--4h-4p-1--0--7h-7p-4--0--|--3b----0--0--0--0--0--0--||---3------6-----|


                   PM PM PM PM PM PM PM PM PM PM PM PM    PM PM PM PM PM PM
  Q.     Q.        S  S  S  S  S  S  S  S  S  S  S  S     E  E  E  E  E  E
----------------|--------------------------------------|--------------------|
----------------|--------------------------------------|--------------------|
----------------|--------------------------------------|--------------------|
--7------4------|--------------------------------------|--------------------|
--x------x------|--3--3--3--3--3--3--3--3--3--3--3--3--|--0--9--6--7--6--0--|
--5------2------|--------------------------------------|--------------------|


  Q.     Q.        Q.     Q.        Q.      Q.         Q    Q
----------------|----------------|-----------------|-------------|
----------------|----------------|-----------------|-------------|
----------------|----------------|-----------------|-------------|
--5------8------|--7------4------|--8------11------|--10----7----|
--x------x------|--x------x------|--x-------x------|---x----x----|
--3------6------|--5------2------|--6-------9------|---8----5----|


                         PM PM         PM
  Q     Q     E  E       E  E  Q.      E  Q
--------------------||-------------------------|
--------------------||-------------------------|
--6-----9-----8--5--||*------------------------|
--x-----x-----x--x--||*--------5b---------3----|
--4-----7-----6--3--||---2--2--x-------2--x----|
--------------------||---0--0--3b------0--1----|


  PM                                PM PM              PM
  E  S S S S S S S S S S S S S S    E  E  Q.      Q    E
---------------------------------|------------------------|
---------------------------------|------------------------|
---------------------------------|------------------------|
---------------------------------|--------8b------5-------|
-----4-4-7-7-7-7-8-8-8-8-5-5-5-5-|--2--2--x-------x----2--|
--0------------------------------|--0--0--6b------3----0--|


       PM                        PM PM         PM
  Q    E  S S S S S S S S S S    E  E  Q.      E  Q
------------------------------|------------------------|
------------------------------|------------------------|
--6---------------------------|------------------------|
--x-----------------6-6-------|--------5b---------3----|
--4-------8-8-7-7-7-----5-5-5-|--2--2--x-------2--x----|
-------0----------------------|--0--0--3b------0--1----|


  PM                                   PM PM         PM PM
  E  S S S S S S S S S S S S S S    E  E  E  Q.      E  E
---------------------------------|--------------------------||
---------------------------------|--------------------------||
---------------------------------|-----------7b------------*||
---------------------------------|-----------x-------------*||
-----4-4-7-7-7-7-8-8-8-8-5-5-5-5-|--0--2--2--5b------2--2---||
--0------------------------------|-----0--0----------0--0---||


   W                   W                   W
--------------------|-------------------|-------------------|
--------------------|-------------------|-------------------|
*--6----------------|--L----------------|--L----------------|
*--x----------------|-------------------|-------------------|
---4----------------|--L----------------|--L----------------|
--------------------|-------------------|-------------------|


  W                   W                   W
-------------------|-------------------|-------------------|
-------------------|-------------------|-------------------|
--L----------------|--L----------------|--L----------------|
-------------------|-------------------|-------------------|
--L----------------|--L----------------|--L----------------|
-------------------|-------------------|-------------------|


  W
-------------------||
-------------------||
--L----------------||
-------------------||
--L----------------||
-------------------||
Tap to rate this tab
 
# A B C D E F G H I J K L M N O P Q R S T U V W X Y Z