Song name
# A B C D E F G H I J K L M N O P Q R S T U V W X Y Z

Cannibal Corpse - Priests Of Sodom tab

Cannibal Corpse
Evisceration Plague
Priests Of Sodom

.  - palm mute
\  - slide down to
/  - slide up to
h  - hammer on
p  - pull off
t  - tap
ph - pinch harmonic
~  - vibrato
b  - bend
r  - release bend
tr - trill
x  - mute
*  - comment

Tuning: Bb Eb Ab Db F Bb

Guitar I - Pat O'Brien (Right channel)
Guitar II - Rob Barret (Left channel)



Figure 1 x1
|--------------------------------------------------|
|--------------------------------------------------|
|--------------------------------------------------|
|-5---8---7---4----------------7-4---------5---8---|
|-x---x---x---x---333333333333-----6-7-6-0-x---x---|
|-3---6---5---2----------------------------3---6---|
                               . . . . . .



Figure 2 x2
|---------------------------------------------------|
|---------------------------------------------------|
|---------------------------------------------------|
|-----5b-----3------------------------8b---5-----11-|
|-----x------x-----44777788885555-----x----x-----x--|
|-0-0-3b---0-1---0----------------0-0-6b---3---0-9--|
  . .      .     .                . .          .


---------------------------------------------------------------|
---------------------------------------------------------------|
---------------------------------------------------------------|
-------------------5b-----3--------------------------12b-------|
---887777-11-------x------x-----44777788885555--------x--------|
-0----------10-0-0-3b---0-1---0----------------444-0-10b---0-0-|
 .             . .      .     .                ... .       . .



Repeat Figure 1 x1



Figure 3 x4
|--------------------------------------------------------------------|
|--------------------------------------------------------------------|
|--------------------------------------------------------------------|
|------------------------------5b-------------------5b---------------|
|-----------4------------------x--------------------x----------------|
|-0-3-1-0-3---0-3--441-0-663-0-3b---0-0-441-0-663-0-3b---0-0-0-0-0-6-|
  . . . . .   . .  ... . ... .      . . ... . ... .      . . . . . .



Fill A x1
|---------|
|---------|
|---------|
|-5---8---|
|-x---x---|
|-3---6---|



Repeat Figure 2  x1
Repeat Figure 1  x1
Repeat Figure 3  x4
Repeat Fill A    x1
Repeat Figure 2  x2



Fill B x1
|---------|
|---------|
|---------|
|-7---4---|
|-7---4---|
|-5---2---|



Figure 4A x4
|---------------------------------|
|---------------------------------|
|---------------------------------|GUITAR I
|---------------------------------|
|-7-4-0-6-3-0-4-1-0-----4---------|
|-------------------2-2-2---------|
  . . . . . . . . . . .


|---------------------------------|
|---------------------------------|
|---------------------------------|GUITAR II
|---------------------------------|
|-7-4-0-6-3-0-4-1-0-4-4-4-4-4-4-4-|
|-------------------2-2-2-2-2-2-2-|
  . . . . . . . . . . . . . . . .



Figure 4B x2
|--------------------------------------------------|
|--------------------------------------------------|
|--------------------------------------------------|
|--------------------------------------------------|
|-7-4-0-6-3-0-4-1-0--------------------------------|
|-------------------222222-5-2-0-6-3-0-5-2-0-6-3-0-|
  . . . . . . . . . ...... . . . . . . . . . . . .



Figure 4C x4
|---------------------------------|
|---------------------------------|
|---------------------------------|
|---------------------------------|
|-7-4-0-6-3-0-4-1-----------------|
|-----------------5-2-0-6-3-0-5-2-|
  . . . . . . . . . . . . . . . .



Figure 5 x4
|-------------------------------------|
|-------------------------------------|
|-------------------------------------|
|-------------------------------------|
|-------------------------------------|
|-643-643-643-976-643-643-643-976-0-0-|
  ... ... ... ... ... ... ... ... . .



Figure 6 x4
|-------------------------------------------------|
|-------------------------------------------------|
|-------------------------------------------------|
|-------------------------------------------------|
|-------------------------------------------------|
|-643-0-0-12109-0-976-0-643-0-0-12109-0-976-0-0-0-|
  ... . . . . . . ... . ... . . . . . . ... . . .



Fill C x1
|-----------------|
|-----------------|
|-----------------|
|-5---8---7---4---|
|-x---x---x---x---|
|-3---6---5---2---|



Repeat Figure 3 x4



Figure 7 x1
|----------------------------------------------------------|
|----------------------------------------------------------|
|----------------------------------------------------------|
|-5---8---7---4----------------7-4---------5---8---7---4---|
|-x---x---x---x---333333333333-----6-7-6-0-x---x---x---x---|
|-3---6---5---2----------------------------3---6---5---2---|
                               . . . . . .


---------------------------------------|
---------------------------------------|
---------------------------------------|
--8---11--10--7------11--14---13---10--|
--x---x---x---x------x---x----x----x---|
--6---9---8---5------9---12---11---8---|



Repeat Figure 2 x2



End song with
|-----|
|-----|
|-----|Let it ring
|-11--|
|-x---|
|-9---|

DONE!
Tap to rate this tab
 
# A B C D E F G H I J K L M N O P Q R S T U V W X Y Z