Song name
# A B C D E F G H I J K L M N O P Q R S T U V W X Y Z

Cannibal Corpse - Devoured By Vermin tab

Cannibal Corpse
Vile
Devoured By Vermin

.  - palm mute
\  - slide down to
/  - slide up to
h  - hammer on
p  - pull off
t  - tap
ph - pinch harmonic
~  - vibrato
b  - bend
r  - release bend
tr - trill
x  - mute
*  - comment

Tuning: Bb Eb Ab Db F Bb

Guitar I - Rob Barret (Left channel)
Guitar II - Jack Owen (Right Channel)


-------------------------------------------------------
* Heres the song you have all been waiting for.
  You might as well just it rate five stars now.
  Because this is as accurate as I can get it!
-------------------------------------------------------



Figure 1 x1
|------------------------------------------------------------|
|------------------------------------------------------------|
|------------------------------------------5-8-8---8-7-7-----| GUITAR I
|--------5------5------------5------5------x-x-x---x-x-x-----|
|--------3------3------------3------3------3-6-6---6-5-5-----|
|-222222---2222---2222222222---2222---2222-------------------|
  ......   ....   ..........   ....   ....


-------------------------------------------------------------|
-------------------------------------------------------------|
-----------------------------5-8-8--8-7-7--7-11-11--11-10-10-|
---------5------5------------x-x-x--x-x-x--x-x--x---x--x--x--|
---------3------3------------3-6-6--6-5-5--5-9--9---9--8--8--|
--222222---2222---2222222222---------------------------------|
  ......   ....   ..........


-------------------------------------------------------------|
-------------------------------------------------------------|
-------------------------------------------5-8-8---8-7-7-----|
---------5------5------------5------5------x-x-x---x-x-x-----|
---------3------3------------3------3------3-6-6---6-5-5-----|
--222222---2222---2222222222---2222---2222-------------------|
  ......   ....   ..........   ....   ....


-------------------------------------------------------------|
-------------------------------------------------------------|
-----------------------------5-8-8--8-7-7--8-12-12--12-11-11-|
---------5------5------------x-x-x--x-x-x--x-x--x---x--x--x--|
---------3------3------------3-6-6--6-5-5--6-10-10--10-9--9--|
--222222---2222---2222222222---------------------------------|
  ......   ....   ..........



|-----------------------------------------------------------------|
|-----------------------------------------------------------------|
|------------------------------------------8-11-11--11-10-10------| GUITAR II
|--------5------5------------5------5------x-x--x---x--x--x-------|
|--------3------3------------3------3------6-9--9---9--8--8-------|
|-222222---2222---2222222222---2222---2222------------------------|
  ......   ....   ..........   ....   ....


-------------------------------------------------------------------|
-------------------------------------------------------------------|
-----------------------------8-11-11--11-10-10--10-14-14--14-13-13-|
---------5------5------------x-x--x---x--x--x---x--x--x---x--x--x--|
---------3------3------------6-9--9---9--8--8---8--12-12--12-11-11-|
--222222---2222---2222222222---------------------------------------|
  ......   ....   ..........


------------------------------------------------------------------|
------------------------------------------------------------------|
-------------------------------------------8-11-11--11-10-10------|
---------5------5------------5------5------x-x--x---x--x--x-------|
---------3------3------------3------3------6-9--9---9--8--8-------|
--222222---2222---2222222222---2222---2222------------------------|
  ......   ....   ..........   ....   ....

------------------------------------------------------------------|
------------------------------------------------------------------|
-----------------------------8-11-11--11-10-10--11-15-15--15-14-14|
---------5------5------------x-x--x---x--x--x---x--x--x---x--x--x-|
---------3------3------------6-9--9---9--8--8---9--13-13--13-12-12|
--222222---2222---2222222222--------------------------------------|
  ......   ....   ..........





Fill A x1
|-------------------------------------------------------|
|-------------------------------------------------------|
|-------------------------------------------------------|
|-------------------------------------------ph----------|
|-0-3-6-5--0-5-8-6--0-6-9-8--0-8-11-9-------9-----------|
|--------------------------------------8888-----5---8---|
  . . . .  . . . .  . . . .  . . .  .  ....     .



Figure 2 x1
|-------------------------------------------------------|
|-------------------------------------------------------|
|-------------------------------------------------------|
|-------------------------------------------------------|
|---------------------------5-5-3-3---------------------|
|-5555-222222222222-5---2-----------5555-222222222222---|
  .... ............ .   .           .... ............


------------------------------------|
------------------------------------|
------------------------------------|
------------------------------------|
----------6-6-3-----3---6-----------|
--4---2-----------2---2-----2---5---|
  .   .           .   .     .



Repeat Fill A   x1
Repeat Figure 2 x1



Figure 3 x2
|------------------------------------------------------|
|------------------------------------------------------|
|----------------------5/8-----------------5/8---------|
|----------------------x-x-----------------x-x---------|
|-630000-960000-630000-3/6---630000-960000-3/6---4--4--|
|------------------------------------------------2--2--|


                                              GUITAR I   OR   GUITAR II
-------------------------------------------|-------------|--------------|
-------------------------------------------|-------------|--------------|
-----------------------5/8-----------------|-5/8---7/11--|-8/11---10/14-|
-----------------------x-x-----------------|-x-x---x-x---|-x-x----x--x--|
--630000-960000-630000-3/6---630000-960000-|-3/6---5/9---|-6/9----8-/12-|
-------------------------------------------|-------------|--------------|



Repeat Figure 1 x1



Fill B x1
|-------------------------------------------------------|
|-------------------------------------------------------|
|-------------------------------------------------------|GUITAR I
|-------------------------------------------ph----------|
|-0-3-6-5--0-5-8-6--0-6-9-8--0-8-11-9-------9-----------|
|--------------------------------------8888-----5---8---|
  . . . .  . . . .  . . . .  . . .  .  ....     .


|-------------------------------------------------------|
|-------------------------------------------------------|
|-------------------------------------------------------|GUITAR II
|-------------------------------------------ph----------|
|-0-3-6-5--0-5-8-6--0-6-9-8--0-8-11-9-------9-----------|
|--------------------------------------8888-----8---11--|
  . . . .  . . . .  . . . .  . . .  .  ....     .



Repeat Figure 2 x1
Repeat Figure B x1
Repeat Figure 2 x1
Repeat Figure 3 x2
Repeat Figure 1 x1



Passage x1
|-------------------------------------------------|
|-------------------------------------------------|
|-------------------------------------------------|GUITAR I
|-------------------------------------------------|
|-4-4-4-4-4-4-4-4-4-4-4-4-4-4-4-4-4-4-4-4-4-4-4-4-|
|-2-2-2-2-2-2-2-2-2-2-2-2-2-2-2-2-2-2-2-2-2-2-2-2-|
  . . . . . . . . . . . . . . . . . . . . . . . .


|-------------------------------------------------|
|-------------------------------------------------|
|-------------------------------------------------|GUITAR II
|-------------------------------------------------|
|-------------------------4-------4-------4-------|
|-------------------------2-------2-------2-------|



Figure 4 x2
|-------------------------------------------------|
|-------------------------------------------------|
|-------------------------------------------------|
|-------------------------------------------------|
|-------------3-0-2-0-6-3-4-4-4-4-4-4-3/6-6-6-----|
|-2-5-3-2-6-4-------------2-2-2-2-2-2---------5-5-|
  . . . . . .   .   .     . . . . . .


----------------------------------------------------|
----------------------------------------------------|
----------------------------------------------------|
----------------------------------------------------|
--------------3-0-2-0-6-3---------/7------------3/6-|
--2-5-3-2-6-4-------------22222222/5---22222222-----|
  . . . . . .   .   .     ........     ........



Figure 5 x2
|-----------------------------------------------------|
|-----------------------------------------------------|
|-----------------------------------------------------| GUITAR I
|-----------------------------------------------------|
|-4-4-4-4-4-4-4-4-4-4-4-4-3-4-4-4-4-4-3/6-6-6---------|
|-2-2-2-2-2-2-2-2-2-2-2-2---2-2-2-2-2---------5-5-----|
  . . . . . . . . . . . .   . . . . .


------------------------------------------------------|
------------------------------------------------------|
------------------------------------------------------|
------------------------------------------------------|
--4-4-4-4-4-4-4-4-4-4-4-4-3-4-4-4-4-4-66-3333-44------|
--2-2-2-2-2-2-2-2-2-2-2-2---2-2-2-2-2------------5555-|
  . . . . . . . . . . . .   . . . . .



|-----------------------------------------------------|
|-----------------------------------------------------|
|-----------------------------------------------------| GUITAR II
|-----------------------------------------------------|
|-4-----------------------3-4-4-4-4-4-3/6-6-6---------|
|-2-------------------------2-2-2-2-2---------5-5-----|
  .                         . . . . .


------------------------------------------------------|
------------------------------------------------------|
------------------------------------------------------|
------------------------------------------------------|
--4-----------------------3-4-4-4-4-4-66-3333-44------|
--2-------------------------2-2-2-2-2------------3333-|
  .                         . . . . .



Repeat Figure 4 x2



Fill C x1
|--------------------|           |--------------------|
|--------------------|           |--------------------|
|--------------------|GUITAR I   |--------------------|GUITAR II
|--------------------|           |--------ph----------|
|--------9---7---10--|           |--------9-----------|
|-8h11p8-----5---8---|           |-8h11p8-----5---8---|
                                              .



Figure 6A x1
|---------------------------------------------------------------------|
|---------------------------------------------------------------------|
|---------------------------------------------------------------------|
|---------------------------------------------------------------------|
|---------------------------5-5-3-3---------------------------6-6-3-3-|
|-5555-222222222222-5---2-----------5555-222222222222-5---2-----------|
  .... ............ .   .           .... ............ .   .


----------------------------------------------------------------------|
----------------------------------------------------------------------|
----------------------------------------------------------------------|
----------------------------------------------------------------------|
----------------------------5-5-3-3-------------------3---5-----------|
--5555-222222222222-5---2-----------5555-222222222222---2-----2---5---|
  .... ............ .   .           .... ............   .     .



Figure 6B x1
|---------------------------------------------------------------------|
|---------------------------------------------------------------------|
|---------------------------------------------------------------------|
|---------------------------------------------------------------------|
|---------------------------5-5-3-3---------------------------6-6-3-3-|
|-5555-222222222222-5---2-----------5555-222222222222-5---2-----------|
  .... ............ .   .           .... ............ .   .


------------------------------------------------------------------------|
------------------------------------------------------------------------|
------------------------------------------------------5-5-8-8-7-7-11-11-|
------------------------------------------------------x-x-x-x-x-x-x--x--|
----------------------------5-5-3-3-------------------3-3-6-6-5-5-9--9--|
--5555-222222222222-5---2-----------5555-222222222222-------------------|
  .... ............ .   .           .... ............



Repeat Figure 1 x1

DONE!
Tap to rate this tab
# A B C D E F G H I J K L M N O P Q R S T U V W X Y Z