Song name
# A B C D E F G H I J K L M N O P Q R S T U V W X Y Z

Cannibal Corpse - Unleashing The Bloodthirsty tab

Cannibal Corpse
Bloodthirst
Unleashing The Bloodthirsty

.  - palm mute
\  - slide down to
/  - slide up to
h  - hammer on
p  - pull off
t  - tap
ph - pinch harmonic
~  - vibrato
b  - bend
r  - release bend
tr - trill
x  - mute
*  - comment

Tuning: Bb Eb Ab Db F Bb

Guitar I - Pat O'Brien (Left channel)
Guitar II - Jack Owen (Right channel)



Fill A x1
|-----------------------------|
|-----------------------------|
|-----------------------------| GUITAR 1
|-----------------------------|
|-----------------------------|
|-0------0------0------0------|



|-----------------------------|
|-----------------------------|
|-----------------------------| GUITAR II
|-----------------------------|
|-----------------------------|
|-0---------------------------|



Fill B x4
|-------------|
|-------------|
|-------------|
|-------------|
|-5---8---7---|
|-3---6---5---|
  .   .   .



Fill C x1
|----------------------------------|
|----------------------------------|
|----------------------------------| GUITAR I
|----------------------------------|
|-77777777777777777777777777777777-|
|----------------------------------|
  


|----------------------------------|
|----------------------------------|
|----------------------------------| GUITAR II
|-9--------------------------------|
|-7--------------------------------|
|-7--------------------------------|



Figure 1 x2
|------------------------------------------|-----------------|
|------------------------------------------|-----------------|
|------------------------------------------|-----------------|
|------------------------------------------|-------5-8-------|
|-----4---------10----------7---------4----|-----4-----7---7-|
|-0-3---6---0-9----12---0-6---9---0-3---6--|-0-3---------6---|
  . . . .   . . .  .    . . . .   . . . .    . .         .



|------------------------------------------|--------------------|
|------------------------------------------|--------------------|
|------------------------------------------|--------------------|
|------------------------------------------|-------8-11---------|
|-----4---------10----------7---------4----|-----7------10---10-|
|-0-3---6---0-9----12---0-6---9---0-3---6--|-0-6-----------9----|
  . . . .   . . .  .    . . . .   . . . .    . .           .



Guitar II plays this on 3rd and 4th endings
|--------------------|       |-----------------------|
|--------------------|       |-----------------------|
|--------------------|3rd    |-----------------------|4th
|-------8-11---------|       |--------11-14----------|
|-----7------10---10-|       |-----10-------13----13-|
|-0-6-----------9----|       |-0-9-------------12----|
  . .           .              . .             . 



Figure 2 x1
|-------------------------------------------------------|
|-------------------------------------------------------|
|-------------------------------------------------------| GUITAR I
|--------/12---11------------------3-------6------------|
|-7-------x----x---------------5-4-1---5-4-4------------|
|-0------/10---9---6tr9------0-3-2---0-3-2---0-33333333-|
                             . . .   . . .   . ........



|-------------------------------------------------------|
|-------------------------------------------------------|
|-------------------------------------------------------| GUITAR I
|---------------------------------------------9---8-----|
|-66666666-77777777--------------------7------x---x-----|
|-------------------6666666666666666---0------7---6-----|



|-------------------------------------------------------|
|-------------------------------------------------------|
|-------------------------------------------------------| GUITAR II
|--------/12---11------------------3-------6------------|
|-7-------x----x---------------5-4-1---5-4-4------------|
|-0------/10---9---6tr9------0-3-2---0-3-2---0-66666666-|
                             . . .   . . .   . ........



|-------------------------------------------------------|
|-------------------------------------------------------|
|-------------------------------------------------------| GUITAR II
|-88888888-55555555---------------------------12---11---|
|-------------------4444444444444444---7------x----x----|
|--------------------------------------0------10---9----|



Figure 3 x1
|---------------------------------------------|
|---------------------------------------------|
|---------------------------------------------|
|-----------5--4--5--5/9--8--5--5/8-----------|
|-----------x--x--x--x-x--x--x--x-x-----------|
|-3tr6------3--2--3--3/7--6--3--3/6--3--2tr3--|



Figure 4 x4
|-------------|
|-------------|
|-------------|
|-------------|
|-----4---ph--|
|-0-3---6-3---|
  . .



Repeat Figure 1 x2
Repeat Figure 2 x1
Repeat Figure 3 x1



Figure 5 x1
|-------------------------------------------------------------|
|-------------------------------------------------------------|
|-------------------------------------------------------------|
|--------/12---11-----------------------5/8--5----------5/8---|
|-7-------x----x------------------------x-x--x----------x-x---|
|-0------/10---9---6tr9---5tr8---4tr7---3/6--3---2tr3---3/6---|



Figure 6 x1
|-----------------------------|
|-----------------------------|
|-----------------------------|
|-----------------------------|
|-7------7------7------7------|
|-0------0------0------0------|



Repeat Fill B x4



Fill D x1
|----------------------------------|
|----------------------------------|
|----------------------------------| GUITAR I
|----------------------------------|
|-77777777777777777777777777777777-|
|----------------------------------|



|--------------------------------------------|
|--------------------------------------------|
|--------------------------------------------| GUITAR II
|-5555555555555555-88888888-1111111111111111-|(those are elevens)
|--------------------------------------------|
|--------------------------------------------|



Figure 7 x4
|----------------------------------|
|----------------------------------|
|----------------------------------|
|-5/6------8/9---------------------|
|-3/4------6/7------5----4-5---5-8-|
|-----0000-----0000-3----2-3---3-6-|
      ....     .... .    . .   . 



Figure 8 x2
|---------------------------------------|
|---------------------------------------|
|---------------------------------------|
|----------5/6-5/6------------5/6-4h5---|
|-77777777-3/4-3/4---77777777-3/4-------|
|---------------------------------------|
  ........           ........



|---------------------------------------|
|---------------------------------------|
|---------------------------------------|
|----------5/6-5/6------------5/6-------|
|-77777777-3/4-3/4---77777777-3/4-ph----|
|---------------------------------6-----|
  ........           ........



Repeat Figure 7 x4
Repeat Figure 8 x2



Figure 9 x4
|-------------------------------|
|-------------------------------|
|-------------------------------|
|-9----12-------11--9---\8/9----|
|-7-11-10--11---x---x----x-x-ph-|
|---9------9----9---7---\6/7-6--|
    .      .



Repeat Figure 4 x4
Repeat Figure 9 x4
Repeat Figure 4 x16



Figure 10 x4
|-----------------------------------------|
|-----------------------------------------|
|-----------------------------------------|
|-----------------------------------------|
|-----4---------10----------7---------4---|
|-0-3---6---0-9----12---0-6---9---0-3---6-|
  . . . .   . . .  .    . . . .   . . . .



Guitar II plays this on 3rd and 4th times
|--------------------------------------------|
|--------------------------------------------|
|--------------------------------------------|
|--------------------------------------------|
|-----4----------13----------10----------7---|
|-0-3---6---0-12----15---0-9----12---0-6---9-|
  . . . .   . .  .  .    . . .  .    . . . .



Repeat Fill B x2
Repeat Figure 7 x2
Repeat Figure 8 x1
Repeat Figure 7 x2
Repeat Figure 8 x1



Figure 11 x4
|-----------------------------------|
|----------/13-13------------/14-14-|
|-----------x--x--------------x--x--|
|----------/10-10------------/11-11-|
|-77777777----------77777777--------|
|-----------------------------------|
  ........          ........



Guitar II plays this on 3rd and 4th times
|-----------------------------------|
|----------/16-16------------/17-17-|
|-----------x--x--------------x--x--|
|----------/13-13------------/14-14-|
|-77777777----------77777777--------|
|-----------------------------------|
  ........          ........



Figure 12 x2
|-----------------|
|-14--14--14--14--|
|-x---x---x---x---| GUITAR I
|-11--11--11--11--|
|-----------------|
|-----------------|



|-----------------|
|-17--17--17--17--|
|-x---x---x---x---| GUITAR II
|-14--14--14--14--|
|-----------------|
|-----------------|



Figure 13 x1
|-------------------------------------------------------|
|-------------------------------------------------------|
|-------------------------------------------------------| GUITAR I
|--------/12---11------------------3-------6------------|
|-7-------x----x---------------5-4-1---5-4-4------------|
|-0------/10---9---6tr9------0-3-2---0-3-2---0-33333333-|
                             . . .   . . .   . ........



|-------------------------------------------------------|
|-------------------------------------------------------|
|-------------------------------------------------------| GUITAR I
|---------------------------------------------9---8-----|
|-66666666-77777777--------------------7------x---x-----|
|-------------------6666666666666666---0------7---6-----|



|-------------------------------------------------------|
|-------------------------------------------------------|
|-------------------------------------------------------| GUITAR II
|----------------------------------3-------6------------|
|-7----------------PICKSLIDE---5-4-1---5-4-4------------|
|-0----------------x\\\\\\\\\\-3-2---0-3-2---0-66666666-|
                               . .   . . .     ........



|-------------------------------------------------------|
|-------------------------------------------------------|
|-------------------------------------------------------| GUITAR II
|-88888888-55555555---------------------------12---11---|
|-------------------4444444444444444---7------x----x----|
|--------------------------------------0------10---9----|



Repeat Figure 3 x1
Repeat Figure 5 x1



End with this
|------------|
|------------|
|------------| Let it ring
|-8/11~------|
|-x-x--------|
|-6/9~-------|

DONE!
Tap to rate this tab
 
# A B C D E F G H I J K L M N O P Q R S T U V W X Y Z