Guitaretab - guitar tabs
Song name
# A B C D E F G H I J K L M N O P Q R S T U V W X Y Z

Cannibal Corpse - Necropedophile tab

Cannibal Corpse - Necropedophile
Album:Tomb of the Mutilated (1992)
Tabbed by:Jordan Brooks (weinersandbeans@hotmail.com)

  h=hammer on
  p=pull off
  pm=palm mute
  /=slide
  ph=pinch harmonic
 
  Eb Ab Db Gb Bb eb           
             
               3x                         1x                           2x                   1x
  |---------------------|------------------------------------|--------------------|-------------------|
  |---------------------|------------------------------------|--------------------|-------------------|
  |---------------------|------------------------------------|--------------------|-------------------| 
  |---------------------|------------------------------------|--------------------|-------------------|
  |-2h3-----------------|-----7/8----7/8-2h3-----------------|-2h3----------------|-----7/8----7/8----|
  |-----1h2p1/2h3p2/3h4-|-000-5/6-00-5/6-----1h2p1/2h3p2/3h4-|----1h2p1/2h3p2/3h4-|-000-5/6-00-5/6-00-|
  |                       pm.     ..                                                pm.     ..     .. | Riff A1 1x  
  |                                                                                                   |
  |---------------------|------------------------------------|--------------------|-------------------|
  |---------------------|------------------------------------|--------------------|-------------------|
  |---------------------|------------------------------------|--------------------|-------------------|
  |---------------------|------------------------------------|--------------------|-------------------|
  |---------------------|-----7/8----7/8-2-------------------|--------------------|-----7/8----7/8----|
  |---------------------|-000-5/6-00-5/6-0-------------------|--------------------|-000-5/6-00-5/6-00-|
                          pm.     ..                                                pm.     ..     ..
              3x                 2x
  |---------------------|-------------------|
  |---------------------|-------------------|
  |---------------------|-------------------| Riff A2 3x
  |---------------------|-------------------|
  |-2h3-----------------|-----7/8----7/8----|
  |-----1h2p1/2h3p2/3h4-|-000-5/6-00-5/6-00-|
                          pm.     ..     ..
             3x                 2x
  |---------------------|----------------|
  |---------------------|----------------|
  |---------------------|----------------| Riff A3 1x
  |---------------------|----------------|
  |-2h3-----------------|-----7/8----7/8-|
  |-----1h2p1/2h3p2/3h4-|-000-5/6-00-5/6-|
                          pm.     ..     
  
  |-----------------------------------------------------------------------------|
  |-----------------------------------------------------------------------------|
  |-------------------------------------3---------------------------------------| Riff B1 1x
  |-------------------------------------1-------------------------------------7-|
  |---------------------2h3p2-----------1---------------------2h3p2-----------5-|
  |-0000-2222-1111-0000-------0000-0000---0000-2222-1111-0000-------0000-0000-5-|


  |------------------------------------------------------------------|
  |----------------------------------------------------------------3-|
  |-------------------------------------3---------------------4444-2-| Riff B2 1x
  |-------------------------------------1---------------------4444-0-|
  |---------------------2h3p2-----------1---------------------2222-0-|
  |-0000-2222-1111-0000-------0000-0000---0000-2222-1111-0000-2222---|
                                                              pm..
             3x                   2x
  |---------------------|-------------------|
  |---------------------|-------------------|
  |---------------------|-------------------| Riff A2 3x
  |---------------------|-------------------|
  |-2h3-----------------|-----7/8----7/8----|
  |-----1h2p1/2h3p2/3h4-|-000-5/6-00-5/6-00-|
                          pm.     ..     ..
             3x                 2x
  |---------------------|----------------|
  |---------------------|----------------|
  |---------------------|----------------| Riff A3 1x
  |---------------------|----------------|
  |-2h3-----------------|-----7/8----7/8-|
  |-----1h2p1/2h3p2/3h4-|-000-5/6-00-5/6-|
                          pm.     ..     
  
  |-----------------------------------------------------------------------------|
  |-----------------------------------------------------------------------------|
  |-------------------------------------3---------------------------------------| Riff B1 1x
  |-------------------------------------1-------------------------------------7-|
  |---------------------2h3p2-----------1---------------------2h3p2-----------5-|
  |-0000-2222-1111-0000-------0000-0000---0000-2222-1111-0000-------0000-0000-5-|


  |------------------------------------------------------------------|
  |----------------------------------------------------------------3-|
  |-------------------------------------3--------------------------2-| Riff B2 1x
  |-------------------------------------1---------------------4444-0-|
  |---------------------2h3p2-----------1---------------------2222-0-|
  |-0000-2222-1111-0000-------0000-0000---0000-2222-1111-0000-2222---|
                                                              pm..

  |-------------------------|
  |-----------------------3-|
  |-----------------------2-| Riff C 4x
  |-----------------------0-|
  |-444-333-2h3p2-444-333-0-|
  |-222-111-------222-111---|
    pm. ...       pm. ...

  |-------------------------|
  |-------------------------|
  |-------------------------| Riff D 4x
  |-------------------------|
  |-333-222-44444-333-1h2p1-|
  |-111-000-22222-111-------|
    pm. ... ..... ...

  |-----------------------------------------|
  |-----------------------------------------|
  |-----------------------------------------| Riff E 4x
  |-----------------------------------------|
  |-----------------------------------1h2p1-|
  |-1111-1111-0000-3333-3333-3333-1h2-------|


  |-----------------------------------------------------------------------------|
  |-----------------------------------------------------------------------------|
  |-------------------------------------3---------------------------------------| Riff B1 1x
  |-------------------------------------1-------------------------------------7-|
  |---------------------2h3p2-----------1---------------------2h3p2-----------5-|
  |-0000-2222-1111-0000-------0000-0000---0000-2222-1111-0000-------0000-0000-5-|

[ Tab from: http://www.guitaretab.com/c/cannibal-corpse/36828.html ]
  |------------------------------------------------------------------|
  |----------------------------------------------------------------3-|
  |-------------------------------------3--------------------------2-| Riff B2 1x
  |-------------------------------------1---------------------4444-0-|
  |---------------------2h3p2-----------1---------------------2222-0-|
  |-0000-2222-1111-0000-------0000-0000---0000-2222-1111-0000-2222---|
                                                              pm..

  |-------------------------|
  |-----------------------3-|
  |-----------------------2-| Riff C 4x
  |-----------------------0-|
  |-444-333-2h3p2-444-333-0-|
  |-222-111-------222-111---|
    pm. ...       pm. ...

  |-------------------------|
  |-------------------------|
  |-------------------------| Riff D 4x
  |-------------------------|
  |-333-222-44444-333-1h2p1-|
  |-111-000-22222-111-------|
    pm. ... ..... ...

  |------------------------------------------------|
  |------------------------------------------------|
  |------------------------------------------------| Riff F 2x
  |------------------------------------------------|
  |-444-333-33-333-333-33-333-222-44-444-333-1h2p1-|
  |-222-111-11-111-111-11-111-000-22-222-111-------|
    pm. ... .. ... ... .. ... ... .. ... ...
             3x                   2x
  |---------------------|-------------------|
  |---------------------|-------------------|
  |---------------------|-------------------| Riff A2 3x
  |---------------------|-------------------|
  |-2h3-----------------|-----7/8----7/8----|
  |-----1h2p1/2h3p2/3h4-|-000-5/6-00-5/6-00-|
                          pm.     ..     ..
             3x                  2x
  |---------------------|----------------|
  |---------------------|----------------|
  |---------------------|----------------| Riff A3 1x
  |---------------------|----------------|
  |-2h3-----------------|-----7/8----7/8-|
  |-----1h2p1/2h3p2/3h4-|-000-5/6-00-5/6-|
                          pm.     ..     
  
  |-----------------------------------------------------------------------------|
  |-----------------------------------------------------------------------------|
  |-------------------------------------3---------------------------------------| Guitar one
  |-------------------------------------1-------------------------------------7-|
  |---------------------2h3p2-----------1---------------------2h3p2-----------5-|
  |-0000-2222-1111-0000-------0000-0000---0000-2222-1111-0000-------0000-0000-5-|
  |                                                                             | Riff B3 1x
  |                                                                             |
  |-----------------------------------------------------------------------------|
  |-----------------------------------------------------------------------------|
  |-------------------------------------3---------------------------------------|
  |-------------------------------------1-------------------------------------7-| Guitar two
  |-2-----------------------------------1---------------------2h3p2-----------5-|
  |-0-------------------------------------0000-2222-1111-0000-------0000-0000-5-|


  |------------------------------------------------------------------|
  |----------------------------------------------------------------3-|
  |-------------------------------------3--------------------------2-| Riff B2 1x
  |-------------------------------------1---------------------4444-0-|
  |---------------------2h3p2-----------1---------------------2222-0-|
  |-0000-2222-1111-0000-------0000-0000---0000-2222-1111-0000-2222---|
                                                              pm..

  |------------------------------------------------|
  |------------------------------------------------|
  |------------------------------------------------| Riff F 2x
  |------------------------------------------------|
  |-444-333-33-333-333-33-333-222-44-444-333-1h2p1-|
  |-222-111-11-111-111-11-111-000-22-222-111-------|
    pm. ... .. ... ... .. ... ... .. ... ...

  |---------------------------------------------------------------------------------|
  |---------------------------------------------------------------------------------|
  |---------------------------------------------------------------------------------| Riff G 2x
  |---------------------------------------------------------------------------------|
  |---------------------------------------------------------------------------1h2p1-|
  |-2222-2222-1111-1111-1111-1111-1111-1111-1111-1111-0000-2222-2222-2222-1h2-------|
  
       2x        2x        2x            1x
  |---------|---------|---------|-----------------|
  |---------|---------|---------|-----------------|
  |---------|---------|---------|-----------------| Riff H1 4x
  |---------|---------|---------|-----------------|
  |-1h2p1---|-3h4p3---|-2h3p2---|-5h6p5---2h3p2---|
  |-------0-|-------0-|-------0-|-------0-------0-|
          pm        pm        pm        pm      pm

  |-----------------------------------------------------------------|
  |-----------------------------------------------------------------|
  |-----------------------------------------------------------------| Guitar one
  |-----------------------------------------------------------------|
  |-1h2p1---1h2p1---3h4p3---3h4p3---2h3p2---2h3p2---5h6p5---2h3p2---|
  |-------0-------0-------0-------0-------0-------0-------0-------0-|
  |       pm      .       .       .       .       .       .       . | Riff H2 1x                 
  |                                                                 |
  |-----------------------------------------------------------------|
  |-----------------------------------------------------------------|
  |-----------------------------------------------------------------|
  |-3---------------5---------------4---------------8-------4-------| Guitar two
  |-1---------------3---------------2---------------6-------2-------|
  |-1---------------3---------------2---------------6-------2-------|

       2x        2x        2x            1x
  |---------|---------|---------|-----------------|
  |---------|---------|---------|-----------------|
  |---------|---------|---------|-----------------| Riff H1 1x
  |---------|---------|---------|-----------------|
  |-1h2p1---|-3h4p3---|-2h3p2---|-5h6p5---2h3p2---|
  |-------0-|-------0-|-------0-|-------0-------0-|
          pm        pm        pm        pm      pm
       
  |---------|
  |---------|
  |---------| Riff I 2x
  |---------|
  |-1h2p1---|
  |-------0-|
          pm
             3x                   2x
  |---------------------|-------------------|
  |---------------------|-------------------|
  |---------------------|-------------------| Riff A2 3x
  |---------------------|-------------------|
  |-2h3-----------------|-----7/8----7/8----|
  |-----1h2p1/2h3p2/3h4-|-000-5/6-00-5/6-00-|
                          pm.     ..     ..
              3x                 2x
  |---------------------|------------------|
  |---------------------|------------------|
  |---------------------|------------------| Riff A4 1x
  |---------------------|------------------|
  |-2h3-----------------|-----7/8----7/8-2-|
  |-----1h2p1/2h3p2/3h4-|-000-5/6-00-5/6-0-|
                          pm.     ..
                                                   If you find any mistakes email me
Related for Necropedophile tab
Necropedophile chords by Cannibal Corpse