Song name
# A B C D E F G H I J K L M N O P Q R S T U V W X Y Z

Cannibal Corpse - Dormant Bodies Bursting tab

CANNIBAL CORPSE
Dormant Bodies Bursting
from the upcoming album "Gore Obsessed"


Tabbed by Bobby Rafuse


Tuning - this song is played on a 7 string tuned down 1/2 step
       but tabbed out on a 6 string tuned down 3 steps (Bb)

pm - palm mute
/  - slide up
\  - slide down


*NOTE* I'm just gonna do the basic riffs that you need to know.
      Listen to song for correct timing


Riff 1
|----------------------------|
|----------------------------|
|---------4/5--5--5\4--4--3--|
|---------4/5--5--5\4--4--3--|
|-2---2---2/3--3--3\2--2--1--|
|-0---0----------------------|
pm.   .


Fill 
|--------|
|--------|
|--------|
|--------|
|-2---2--|
|-0---0--|
pm.   .


Riff 2
|-----------------------------------|
|-----------------------------------|
|-4/7--7--7\6--6--6\5--5------------|
|-4/7--7--7\6--6--6\5--5------------|
|-2/5--5--5\4--4--4\3--3------------|
|-------------------------00000000--|


Riff 3
|------------------------------|
|------------------------------|
|-8\7--7--9\8--8-10------------|
|-8\7--7--9\8--8-10------------|
|-6\5--5--7\6--6--8---2--2--2--|
|---------------------0--0--0--|
pm                    .  .  .


Riff 4
|-----------------------------------------------------|
|-----------------------------------------------------|
|-----------------------------------------------------|
|-3333------3333------3333------3333------------------|
|-2222------2222------2222------2222-------2222-1111--|
|-----000000----000000----000000----000000-4444-3333--|


That's pretty much all you need to know. Let me know what
you think of my attempt. Later dudes!!
Tap to rate this tab
 
# A B C D E F G H I J K L M N O P Q R S T U V W X Y Z