Song name
# A B C D E F G H I J K L M N O P Q R S T U V W X Y Z

Cannibal Corpse - Living Dissection tab

CANNIBAL CORPSE -  Living Dissection(1991)

Main riff (palm muted)
------------------------------------------|
------------------------------------------|
------------------------------------------|
------------------------------------------|
-1-0-1------------------------------------|
-------2-1--------------------------------|

Riff 2 (palm muted)
------------------------------------------|
------------------------------------------|
------------------------------------------|
---1--------------------------------------|
-4-----5---1-4----------------------------|
-----3---2-----3--------------------------|

Riff 2a
-------------------------------------------------------------|
-------------------------------------------------------------|
-------------------------------------------------------------|
---1------------------1---------------------7-----7----------|
-4-----5---1-4------4-----5---4h5p4-------6-----6------------|
-----3---2-----3--------3---2-------5--55-----5--------------|

Riff 3
------------------------------------------|
------------------------------------------|
------------------------------------------|
------------------------------------------|
------------------------------------------|
-000-000-7-0-6-5-3------------------------|

Verse
--------------------------------------------|
--------------------------------------------|
--------------------------------------------|
-2h3p2---0h1p0---------------7-----7--------|
-----------------4h5p4-----6-----6----------|
-------3-------2-------5-5-----5------------|

Riff 4 (palm muted)
------------------------------|
------------------------------|
------------------------------|
----7-------------------------|
--5---------------------------|
------5-6-5-4-----------------|

Riff 4a
------------------------------|
------------------------------|
------------------------------|
---4--------------------------|
-2---2------------------------|
-------3-4-2------------------|

Riff 4b
------------------------------|
------------------------------|
------------------------------|
----7-------------------------|
--5---5-----------------------|
--------5-6-4-----------------|


Riff 5
------------------------------------------|
------------------------------------------|
------------------------------------------|
------------------------------------------|
--2-2-------------------------3-----------|
------2-2-1-1-3-3-0-0-2-2-1-1-1-----------|


Riff 6
------------------------------------------|
------------------------------------------|
------------------------------------------|
------------------------------------------|
--2h3p2p0---------------------------------|
----------0-0-0-1h2p1p0-0-0-0-------------|
Tap to rate this tab
 
# A B C D E F G H I J K L M N O P Q R S T U V W X Y Z