Song name
# A B C D E F G H I J K L M N O P Q R S T U V W X Y Z

Cannibal Corpse - Pounded Into Dust tab

Cannibal Corpse - Bloodthirst - Pounded Into Dust (1999)

.  - palm mute           /  - slide up to
\  - slide down to       ~  - vibrato
h  - hammer on           b  - Bend
p  - pull off            Suffixes for bend
t  - tap                 f  - full bend    h - half bend
ph - pinched harmonic    q  - quarter bend t - tap bend
*  - see comment         ^  - Hold bend    r release bend
x  - Stuccatto           ~  - vibrato bend
,  - slight palm mute    () - ghost note, sustained note
"  - tremolo note        <> - Trill

Tunning Bb

Here is all the riffs, they go in order as played. The
111's on the first 3 riffs are actually muted over the fret
like a harmonic. So just play over the fret and thats it.

|-----------------------|-------------|
|-----------------------|-------------|
|-----------------------|-------------|
|-----------------/8-5--|-------/8-5--|
|-----------------------|-------------|
|--1110-1110-1110-/6-3--|--1110-/6-3--|
PM .... .... ....          ....

|---------------|
|---------------|
|---------------|
|-------/8-5-3--|
|---------------|
|--1110-/6-3-1--|
PM ....

|----------------------------------|-----------------------|
|----------------------------------|-----------------------|
|----------------------------------|-----------------------|
|----------------------------/8-5--|--/8-5-/8-5-/8-5-/8-5--|
|--9-----7-----10------------------|-----------------------|
|----777---777----777-000000-/6-3--|--/6-3-/6-3-/6-3-/6-3--|
PM   ...   ...    ... ......

|-------------------|      |----------------------------|
|-------------------|      |----------------------------|
|-------------------|Gtr 1 |--/18-15-18-15-18-15-18-15--|Gtr 2
|--8-5-8-5-8-5-8-5--|      |----------------------------|
|--8-5-8-5-8-5-8-5--|      |--/16-13-16-13-16-13-16-13--|
|--6-3-6-3-6-3-6-3--|      |----------------------------|


|---------------------------------------------------|
|---------------------------------------------------|
|--------------------------6-----6------------------|
|--------------------------6-----6-----5-----5------|
|--6-----4-----7-----7-----4-----4-----5-----5------|
|----333---333---333---330---000---000-3-000-3-000--|
PM   ...   ...   ...   ...   ...   ...   ...   ...

|-------------------------------------------------------------|
|-------------------------------------------------------------|
|-------------------------------------------------------------|
|----------------------------------------5-11\1010\99\88------|
|----------------------4---4---4---------5--------------------|
|--6-0-3-0-1-0-3-0-6-0---0---0---0-653-0-3-9-\8-8-\77\66-666--|
PM . . . . . . . . . .   .   .   . ... .                 ...

|-------------------------------------------------------|
|-------------------------------------------------------|
|-------------------------------------------------------|
|-------------------------------------------------------|
|----------------------4---4---4---------7---7----------|
|--6-0-3-0-1-0-3-0-6-0---0---0---3-0-6-0---0---000-000--|
PM . . . . . . . . . .   .   .   . . . .   .   ... ...

|--------------------|
|--------------------|
|--------------------|
|--------8"----------|
|--10"-----4"-7------|
|-----6"--------6\3--|

Here is the solo this is the best I could get it. The
last 21 he uses alot of bar, so if you have one unlike me
use it. The timing with the slides is also really important
so be careful.

|-----------------------------/17201917-/19222119-|
|--181715-/18212018-/19222119---------------------|
|-------------------------------------------------|
|-------------------------------------------------|
|-------------------------------------------------|
|-------------------------------------------------|

 -22b24-22b24"-222019-19201920192019b19b21~--|
 --------------------------------------------|
 --------------------------------------------|
 --------------------------------------------|
 --------------------------------------------|
 --------------------------------------------|

END
Tap to rate this tab
 
# A B C D E F G H I J K L M N O P Q R S T U V W X Y Z