Guitaretab - guitar tabs
Song name
# A B C D E F G H I J K L M N O P Q R S T U V W X Y Z

Cannibal Corpse - Death Walking Terror tab

----------------------------------------------------------------------------
	     Death Walking Terror - Cannibal Corpse
----------------------------------------------------------------------------
Tabbed by: ZACH B.

Tuning: G# C# F# B D# G#

----------------------------------------------------------------------------|
----------------------------------------------------------------------------|
----------------------------------------------------------------------------|
----------------------------------------------------------------------------|
--8-555555555555555-8-555555555555555---------5-222222222222222-555-555-----|
--6-333333333333333-6-333333333333333----X2---3-000000000000000-333-333X8---|
    pm.............   ...............             ............... ... ...

-------------------------------------------------------|
-------------------------------------------------------|
-------------------------------------------------------|
-------6/7-------6----------------6/7-----------2------|
-6\5---4/5---6\5-4-22222222-6\5---4/5---6\5-4-------4--|
-4\3-0-----0-4\3---00000000-4\3-0-----0-4\3---3---3----|
    pm     .       ........     .     .     trem......

-------------------------------------------------------|
-------------------------------------------------------|
-------------------------------------------------------|
-------6/7-------6----------------6/7-----------8------|
-6\5---4/5---6\5-4-22222222-6\5---4/5---6\5-4-----4----|
-4\3-0-----0-4\3---00000000-4\3-0-----0-4\3---3-----3--|
    pm     .       ........     .     .     trem......

----------------------------|
----------------------------|
----------------------------|
----------------------------|
-5-222222222222222-555-555--|
-3-000000000000000-333-333--|X8
   pm............. ... ...

-------------------------------------------------------|
-------------------------------------------------------|
-------------------------------------------------------|
-------6/7-------6----------------6/7-----------2------|
-6\5---4/5---6\5-4-22222222-6\5---4/5---6\5-4-------4--|
-4\3-0-----0-4\3---00000000-4\3-0-----0-4\3---3---3----|
    pm     .       ........     .     .     trem......

-------------------------------------------------------|
-------------------------------------------------------|
-------------------------------------------------------|
-------6/7-------6----------------6/7-----------8------|
-6\5---4/5---6\5-4-22222222-6\5---4/5---6\5-4-----4----|
-4\3-0-----0-4\3---00000000-4\3-0-----0-4\3---3-----3--|
    pm     .       ........     .     .     trem......

----------------------------------|
----------------------------------|
----------------------------------|
-------------3--------------------|
-------7-------------7---5---8----|
-7-7-4---7-4---7-7-4---4---4---4--|X4
 pm. .   . .   . . .   .   .   .

----------------------------|
----------------------------|
----------------------------|
----------------------------|
-5-222222222222222-555-555--|
-3-000000000000000-333-333--|X4
   pm............. ... ...

-------------------------------------------------------|
-------------------------------------------------------|
-------------------------------------------------------|
-------6/7-------6----------------6/7-----------2------|
-6\5---4/5---6\5-4-22222222-6\5---4/5---6\5-4-------4--|
-4\3-0-----0-4\3---00000000-4\3-0-----0-4\3---3---3----|
    pm     .       ........     .     .     trem......
[ Tab from: http://www.guitaretab.com/c/cannibal-corpse/80661.html ]
-------------------------------------------------------|
-------------------------------------------------------|
-------------------------------------------------------|
-------6/7-------6----------------6/7-----------8------|
-6\5---4/5---6\5-4-22222222-6\5---4/5---6\5-4-----4----|
-4\3-0-----0-4\3---00000000-4\3-0-----0-4\3---3-----3--|
    pm     .       ........     .     .     trem......

----------------------------------|
----------------------------------|
----------------------------------|
-------------3--------------------|
-------7-------------7---5---8----|
-7-7-4---7-4---7-7-4---4---4---4--|X8
 pm. .   . .   . . .   .   .   .

---------------------------------------|
---------------------------------------|
---------------------------------------|
---------------------------------------|
--8-555555555555555-8-555555555555555--|
--6-333333333333333-6-333333333333333--|X2

---------------------------|
---------------------------|
---------------------------|
-2---3---5---8-7-9-8-11-7--|
---4---4---7---------------|
---------------------------|X4
 trem.....................


--------------------------------------------------------------------------|
--------------------------------------------------------------------------|
--------------------------------------------------------------------------|
-------------2-3-------------2-3-6-3-2---------------5---------------2-3--|
-------4-5-1-----------4-5-1-----------4-1-2-1-----------------4-5-1------|
-6-0-3-----------6-0-3-------------------------4-0-3---0-6-0-3------------|

----------------------------------------------------------------------------|
----------------------------------------------------------------------------|
----------------------------------------------------------------------------|
-------------2-3-6-3-2-------------2-----3-----5-6-3-2-------------2-----3--|
-------4-5-1-----------4-1-2-5-2-4---4-5---5-7---------4-1-2-5-2-4---4-5----|
-6-0-3----------------------------------------------------------------------|

------------------------------------------------------------------------|
------------------------------------------------------------------------|
------------------------------------------------------------------------|
-----5-6-3-2-------------2-----3-----5-6-3-2-------------2-----3--------|
-5-7---------4-1-2-5-2-4---4-5---5-7---------4-1-2-5-2-4---4-5---5-7-2--|
---------------------------------------------------------------------0--|

----------------------------|
----------------------------|
----------------------------|
----------------------------|
-5-222222222222222-555-555--|
-3-000000000000000-333-333--|X8
   pm............. ... ...

-------------------------------------------------------|
-------------------------------------------------------|
-------------------------------------------------------|
-------6/7-------6----------------6/7-----------2------|
-6\5---4/5---6\5-4-22222222-6\5---4/5---6\5-4-------4--|
-4\3-0-----0-4\3---00000000-4\3-0-----0-4\3---3---3----|
    pm     .       ........     .     .     trem......

-------------------------------------------------------|
-------------------------------------------------------|
-------------------------------------------------------|
-------6/7-------6----------------6/7-----------8------|
-6\5---4/5---6\5-4-22222222-6\5---4/5---6\5-4-----4----|
-4\3-0-----0-4\3---00000000-4\3-0-----0-4\3---3-----3--|
    pm     .       ........     .     .     trem......

----------------------------------|
----------------------------------|
----------------------------------|
-------------3--------------------|
-------7-------------7---5---8----|
-7-7-4---7-4---7-7-4---4---4---4--|X8
 pm. .   . .   . . .   .   .   .

-----------------------------------------|
-----------------------------------------|
-----------------------------------------|
-----------------------------------------|
--8-555555555555555-8-555555555555555-8--|
--6-333333333333333-6-333333333333333-6--|
    pm.............   pm.............


THE END
Related for Death Walking Terror tab