Song name
# A B C D E F G H I J K L M N O P Q R S T U V W X Y Z

Cannonball Adderley - Mercy Mercy Mercy tab

Help us improve GuitareTab! Take a short survey!
Ok here goes...
Great song written by Joe Zawinul. It is kindof hard to get the feeling of 
but its a chill song so you don't really have to get it down 100%.
http://www.cannonball-adderley.com/



e|----------------------------------------------------------|
B|----------------------------------------------------------|
G|----------------------------------------------------------| Repeat this
D|-----5----3-----------------------------------------------|   3 times
A|---------------5--1--3--1--1------1--1--3--3--------------|
E|-------------------------------3---------------1----------|

e|-------------------------------------------------------------------------|
B|-------------------------------------------------------------------------|
G|-------------------------3--3--3--1--------------------------------------|
D|-------0--0---1--1---3-----------------------0--0--1---1--3--3-----------|
A|--1--1----------------------------------1-1------------------------------|
E|-------------------------------------------------------------------1-----|

e|-----------------------------------------------------------------|
B|-----------------------------------------------------------------|
G|-----------------------------------------------------------------|
D|------------------------------3---5--3-5-3-5-5-3-3---------------|
A|---3---3--------5--5---3---5-------------------------------------|
E|-------------5---------------------------------------------------|

Repeat twice and on the third time solo over the first line. 
Good luck.

http://www.cannonball-adderley.com/

Related for Mercy Mercy Mercy tab