Song name
# A B C D E F G H I J K L M N O P Q R S T U V W X Y Z

Canonero - Perdido tab

perdido


caņonero


album: camino al alba



TRANSCRIBED BY RUDY GUZMAN


guzman_84@hotmail.com


                                               
e:-------------------------------------------------------------------------|
B:-------------------------------------------------------------------------|
G:-------------------------------------------------------------------------|
D:------9-9-9-9-9-9-9-9-9-9-9-9-9-9----------------------------------------|
A:-7-5--7-7-7-7-7-7-7-7-7-7-7-7-7-7-10-10-10-10-10-10-10-10-10-7-7-7-7-7-5-|
E:-5-3------------------------------8--8--8--8--8--8--8--8--8--5-5-5-5-5-3-|

e:---------------------------------------------------------------------|
B:---------------------------------------------------------------------|
G:---------------------------------------------------------------------|
D:--9-9-9-9-9-9-9-9-9-9-9-9-9-9----------------------------------------|
A:--7-7-7-7-7-7-7-7-7-7-7-7-7-7-10-10-10-10-10-10-10-10-10-7-7-7-7-7-5-|
E:------------------------------8--8--8--8--8--8--8--8--8--5-5-5-5-5-3-|

  solo 1
e:-----------------------------------------------------------------------------------|
B:------------------------------------------------------------------15---------------|
G:-12----12-14-14bfp12----12----14-14bf12--------12~~----12-14-14bf----14bfp12-------|
D:----14---------------14----14-----------14~~~-------14-----------------------14~~~-|
A:-----------------------------------------------------------------------------------|
E:-----------------------------------------------------------------------------------|

  
e:------------------------------------------------------------------------------------|
B:---------------------15------------------------15------------------------15---------|
G:-12b~~----12-14-14bf----14-12~~-----12-14-14bf----14-12~~-----12-14-14bf----14-12~~-|
D:-------14------------------------14------------------------14-----------------------|
A:------------------------------------------------------------------------------------|
E:------------------------------------------------------------------------------------|

e:---------------------12b-12~~~------------------------------------------------------|
B:---------------15--------------15-12------------------------------------------------|
G:----12-14-14bf----14-----------------14bfp12-14~~~--12------12~~--11-12----11-12-14-|
D:-14------------------------------------------------------14-------------14----------|
A:------------------------------------------------------------------------------------|
E:------------------------------------------------------------------------------------|

                  fdbk
e:-----------------|
B:-12-15-----------|
G:-------12--------|
D:----------14~~~--|
A:-----------------|
E:-----------------|

  verse
e:--------------------------------------------------------------------|
B:--------------------------------------------------------------------|
G:--------------------------------------------------------------------|
D:-9-9-9-9-9-9-9-9-9-9-9-9-9-9----------------------------------------|
A:-7-7-7-7-7-7-7-7-7-7-7-7-7-7-10-10-10-10-10-10-10-10-10-7-7-7-7-7-5-|
E:-----------------------------8--8--8--8--8--8--8--8--8--5-5-5-5-5-3-|

  1:07
e:-----------------------------------------------------------------------|
B:-----------------------------------------------------------------------|
G:-----------------------------------------------------------------------|
D:-9-9-9-9-9-9-9-9-9-9-9-9-9-9--------------------------------------9-9/-|
A:-7-7-7-7-7-7-7-7-7-7-7-7-7-7-10-10-10-10-10-10-10-10-10-7-7-7-7-7-7-7/-|
E:-----------------------------8--8--8--8--8--8--8--8--8--5-5-5-5-5------|

                                      repeat
e:----------------------------------------------|
B:----------------------------------------------|
G:-----------------------14b-14b-12h14p12-------|
D:----------------------------------------14~~~-|
A:-7--7-7-7-7-7-7-7-7-7-------------------------|
E:-0--0-0-0-0-0-0-0-0-0-------------------------|

e:----------------------|
B:----------------------|
G:----------------------|
D:----------------------|
A:-7--7-7-7-7-7-7-7-7-7-|
E:-0--0-0-0-0-0-0-0-0-0-|


        verse
e:-------------------------------------------------------------------------|
B:-------------------------------------------------------------------------|
G:-------------------------------------------------------------------------|
D:------9-9-9-9-9-9-9-9-9-9-9-9-9-9----------------------------------------|
A:-7-5--7-7-7-7-7-7-7-7-7-7-7-7-7-7-10-10-10-10-10-10-10-10-10-7-7-7-7-7-5-|
E:-5-3------------------------------8--8--8--8--8--8--8--8--8--5-5-5-5-5-3-|

e:---------------------------------------------------------------------|
B:---------------------------------------------------------------------|
G:---------------------------------------------------------------------|
D:--9-9-9-9-9-9-9-9-9-9-9-9-9-9----------------------------------------|
A:--7-7-7-7-7-7-7-7-7-7-7-7-7-7-10-10-10-10-10-10-10-10-10-7-7-7-7-7-5-|
E:------------------------------8--8--8--8--8--8--8--8--8--5-5-5-5-5-3-|

   2:00
e:---------------------------------------------------------------------|
B:---------------------------------------------------------------------|
G:---------------------------------------------------------------------|
D:-9-9-9-9-9-9-9-9-9-9-9-9-9-9--------------------------------------9--|
A:-7-7-7-7-7-7-7-7-7-7-7-7-7-7-10-10-10-10-10-10-10-10-10-7-7-7-7-7-7--|
E:-----------------------------8--8--8--8--8--8--8--8--8--5-5-5-5-5----|

         3 times
e:------------------------------|
B:------------------------------|
G:---------------9p7-9bf~~~~~~--|
D:--------7h8h10----------------|
A:-7h8h10-----------------------|
E:------------------------------|

   solo 2
e:---------------------------------------------------------------------------------|
B:-18bf~~~-------------------------------------------------------------------------|
G:---------17bp15-15~~~~~--15bf--15p12----------12--14-14bfp12--------12-14bp12----|
D:-------------------------------------14~~--14----------------14~~~~-----------14-|
A:---------------------------------------------------------------------------------|
E:---------------------------------------------------------------------------------|

e:----------------------------------------------------------------------------------|
B:-12-15--17-17bf15--------17bp15-17~~~~~--17--15-----------------------------------|
G:------------------16~~~-------------------------16-14----------14bf12-------------|
D:------------------------------------------------------17~~~~----------14~~~-------|
A:----------------------------------------------------------------------------------|
E:----------------------------------------------------------------------------------|

e:-----------------------------------------------------------------|
B:-13-13-13-13-13-14-14-14-14-14-13-13-13-13-13-----14-14-14-14-14-|
G:--------------------------------------------------13-13-13-13-13-|
D:-----------------------------------------------------------------|
A:-----------------------------------------------7-----------------|
E:-----------------------------------------------0-----------------|

e:-------------------------------|
B:-14-14-14-14-14-13-13-13-13-13-|
G:-------------------------------|
D:-------------------------------|
A:-------------------------------|
E:-------------------------------|

        verse
e:-------------------------------------------------------------------------|
B:-------------------------------------------------------------------------|
G:-------------------------------------------------------------------------|
D:------9-9-9-9-9-9-9-9-9-9-9-9-9-9----------------------------------------|
A:-7-5--7-7-7-7-7-7-7-7-7-7-7-7-7-7-10-10-10-10-10-10-10-10-10-7-7-7-7-7-5-|
E:-5-3------------------------------8--8--8--8--8--8--8--8--8--5-5-5-5-5-3-|

e:---------------------------------------------------------------------|
B:---------------------------------------------------------------------|
G:---------------------------------------------------------------------|
D:--9-9-9-9-9-9-9-9-9-9-9-9-9-9----------------------------------------|
A:--7-7-7-7-7-7-7-7-7-7-7-7-7-7-10-10-10-10-10-10-10-10-10-7-7-7-7-7-5-|
E:------------------------------8--8--8--8--8--8--8--8--8--5-5-5-5-5-3-|

e:-----------------------------------------------------------------------|
B:-----------------------------------------------------------------------|
G:-----------------------------------------------------------------------|
D:-9-9-9-9-9-9-9-9-9-9-9-9-9-9----------------------------------------9--|
A:-7-7-7-7-7-7-7-7-7-7-7-7-7-7-10-10-10-10-10-10-10-10-10-7-7-7-7-7-5-7--|
E:-----------------------------8--8--8--8--8--8--8--8--8--5-5-5-5-5-3----|


solo 3
  3:24
e:-------------------------------------------------------------------------------------|
B:------------------------15----------------------------------15-----------------------|
G:-------------12-14-14bf----14p12-----------12-14-12-14-14bf----14p12-----------12----|
D:-/12~~~~--14---------------------14-14--14---------------------------14--12-14----14-|
A:-------------------------------------------------------------------------------------|
E:-------------------------------------------------------------------------------------|

e:-------------------------------------------------------------------------------------|
B:-------------------------------------------------------15----------------------------|
G:-12-14-12-14b-14b-14b-14bfp12-----12----12--14-12-14bf----14p12-14p12----------12----|
D:------------------------------14-----14-------------------------------14-12-14----14-|
A:-------------------------------------------------------------------------------------|
E:-------------------------------------------------------------------------------------|

                                                   ------------------
e:------------------------------------------------/-------------------------------|
B:-----------------------------------------------/-15----15----15-----------------|
G:-12-14-12-14b-14b-14b-14bfp12---------12--14bf/-----14----14----14--14-12----12-|
D:------------------------------14~~~~--------------------------------------14----|
A:--------------------------------------------------------------------------------|
E:--------------------------------------------------------------------------------|

e:-------------------------------------------------------------------------------12-----12|
B:---------------------------------------------------------------------------15b----15b---|
G:----------12-----------------12----12----12----------12----12----12-14-12---------------|
D:-14-12-14----14-12-14--14-14----14----14----14-14-14----14----14------------------------|
A:----------------------------------------------------------------------------------------|
E:----------------------------------------------------------------------------------------|

e:-----12----------------------------------------------15bf----15~~~~~~-------------|
B:-15b----15p12-----------------------------------------------------------15~~~~~~--|
G:--------------14-12-14b~~~-14p12-14p12--------------------------------------------|
D:---------------------------------------14p12-14~~~~-------------------------------|
A:----------------------------------------------------------------------------------|
E:----------------------------------------------------------------------------------|

e:-----------------------------------------------------------------------------|
B:-12~~~~~~----20bf------20~~~~~~--20b---17-----17-----17----------------------|
G:------------------------------------------19b----19b----19p17----------------|
D:--------------------------------------------------------------19p17----------|
A:--------------------------------------------------------------------19-19~~~-|
E:-----------------------------------------------------------------------------|

e:-------------------------------------------------------------------------|
B:-------------------------------------------------------------------------|
G:----------------------------------------------------------------19-------|
D:-----------17----17-19-17-19bf-19-17--------17----17-19-17-19bf----19-17-|
A:-17-19-19-----19----------------------19-19----19------------------------|
E:-------------------------------------------------------------------------|

                                                                              fdbk
e:-------------------------------------------------------------------------------|
B:--------------------------------------15bf~~~~~--------------------------------|
G:-------------------------------------------------14b~~~~~--14-12----12~~~~~----|
D:-------17----17-19-17-19bf--17~~~~~------------------------------14------------|
A:-19-19----19-------------------------------------------------------------------|
E:-------------------------------------------------------------------------------|


http://www.myspace.com/canhonero.rock  myspace
http://canhonero.blogspot.com/         CD
http://www.fotolog.com/canhonero_rock  website

hillo son mex

19/02/10
Tap to rate this tab
# A B C D E F G H I J K L M N O P Q R S T U V W X Y Z