Song name
# A B C D E F G H I J K L M N O P Q R S T U V W X Y Z

Cans - Key tab

Maybe It's not 100%correct but it sounds good!
If u can play the rest of the track make an Tabulature so the rest of the world can play
the whole thing aswell!




Guitar 1

E|7-----8-5~~7---------------|7-----8-5~~7--------------------------|
B|--8~~--------8~~-----5/8-7-|--8~~--------8~~----5/8-7-8-7---------|
G|------------------5--------|------------------5----------9~~~~~~~~|
D|---------------------------|--------------------------------------|
A|---------------------------|--------------------------------------|
E|---------------------------|--------------------------------------|

Guitar 2

E|---------------------------|--------------------------------------|
B|12^\8-13^\10-12^\8---5/8-7-|12^\8-13^\10-12^\8--5/8-7-8-7---------|
G|------------------5--------|------------------5----------9~~~~~~~~|
D|---------------------------|--------------------------------------|
A|---------------------------|--------------------------------------|
E|---------------------------|--------------------------------------|
Tap to rate this tab
# A B C D E F G H I J K L M N O P Q R S T U V W X Y Z