Song name
# A B C D E F G H I J K L M N O P Q R S T U V W X Y Z

Cans - Garden Of Evil tab

Tune down a whole step, and then I think you have to Tune the E string another half a step...

|-------------------------------------------------------------|
|-------------------------------------------------------------|
|-------------------------------------------------------------|
|-0h2-2-2-2-2-2-0h2-2-2-2-2-2-2p0-0-0-0-0-0-2p0-0-0-0-0-0-5-4-|
|-0h2-2-2-2-2-2-0h2-2-2-2-2-2-2p0-0-0-0-0-0-2p0-0-0-0-0-0-5-4-|
|-0h2-2-2-2-2-2-0h2-2-2-2-2-2-2p0-0-0-0-0-0-2p0-0-0-0-0-0-5-4-|
      . .   . .     . .   . .     . .   . .     . .   . . 

|-------------------------------------------------------------|
|-------------------------------------------------------------|
|-------------------------------------------------------------|
|-0h2-2-2-2-2-2-0h2-2-2-2-2-2-2p0-0-0-0-0-0-2p0-0-0-0-0-0-5-4-|
|-0h2-2-2-2-2-2-0h2-2-2-2-2-2-2p0-0-0-0-0-0-2p0-0-0-0-0-0-5-4-|
|-0h2-2-2-2-2-2-0h2-2-2-2-2-2-2p0-0-0-0-0-0-2p0-0-0-0-0-0-5-4-|
      . .   . .     . .   . .     . .   . .     . .   . . 

|---------------|
|---------------|
|-5-7-----------|
|-5-7-0h2-2-2-2-|
|-3-5-0h2-2-2-2-|
|-----0h2-2-2-2-|
          . .
Tap to rate this tab
# A B C D E F G H I J K L M N O P Q R S T U V W X Y Z