Song name
# A B C D E F G H I J K L M N O P Q R S T U V W X Y Z

Canseco - Tu Estas Mas tab

Help us improve GuitareTab! Take a short survey!
bueno ps esta cancion es mi favorita de canseco sta bien chingona y va dedicada para 
=P ke la kiero un chingo! la kiero volver a veeer porke ia la extraño..(chiwas_toluk)a webo


               ++Canseco++
                         [Tu estas mas]


     6 5 4 3 2 1
G    3 2 0 0 3 3
G7   0 3 2 0 3 3  <-- la neta me invente los nombres jaja no me acuerdo
Dm3  0 0 2 2 3 3
D7   0 2 2 0 3 3

1|---------------------3---------|
2|---------------------3---------|
3|---------------------0---------|   x3 veces
4|--------0-------0--------------|
5|----0h2-----0h2---3-----3p2p0--|
6|--3-------0--------------------|

1|----------------------33333333--|
2|----------------------33333333--| denle ritmo
3|----------------------00000000--|
4|--------0--------0----22222222--|
5|----0h2------0h2------33333333--|
6|--3--------0--------------------|

       G     G7      Dm3
y si te dijo lo que pienso
       G     G7      Dm3
y tu eres todo lo que quiero
       G     G7      Dm3
y no me importa quien lo sepa
       G     G7      Dm3
y ya va un mes ¿pero quien cuenta?
   G7   D7  Dm3  G7   D7  Dm3   G7
lararara  larararaaa

vuelo mas aqui en tu casa
y las apuestas hoy se pagan
y una historia en cada carta <-- aki es iwal
y ya me voy quita esa cara

Coro:
 G     G7      Dm3
y si tu quieres volveremos a empezar
   G     G7      Dm3
pues yo mil veces te vuelvo a conocer
   G     G7      Dm3
y que no sabes que no duermo
   G     G7      Dm3
por pensar en regresar y nunca
  G7      Dm3
nunca volver a perder
  G7      Dm3

se repite el intro*

* y se repite otra ves todo, los mismos acordes*

y despues sigue un solo ke me dio weba sakar ai pa la proxima. es mi primera tab espero 
guste yeah shido wan eaa saludos pa el gabwap...
Related for Tu Estas Mas tab