Song name
# A B C D E F G H I J K L M N O P Q R S T U V W X Y Z

Canterbury - Seen It All tab

-------------------------------------------------------------------------------
			     SEEN IT ALL - Canterbury
-------------------------------------------------------------------------------
Tabbed by: achlaksuoy
E-mail: blake988@msn.com

Tuning: Standard

A: 5-7-7-6-5-5
F: 1-3-3-2-1-1
C: 8-10-10-9-8-8


Very Beginning chord is an A!

Intro Guitar:

e|----------------------------------------------0-----------------0----------|
B|----------2-----------------2--------------1-----1-----------1-----1-------|
G|-------2-----2-----------2-----2--------2-----------2-----2-----------2----|
D|----4-----------4-----4-----------4----------------------------------------|
A|-------------------------------------0-----------------0-------------------|
E|-2-----------------2-------------------------------------------------------|

e|----------0-----------------0-----------------0-----------------0----------|
B|-------3-----3-----------3-----3-----------2-----2-----------2-----2-------|
G|----2-----------2-----2-----------2-----1-----------1-----1-----------1----|
D|-3-----------------3-----------------2-----------------2-------------------|
A|---------------------------------------------------------------------------|
E|---------------------------------------------------------------------------|

Verse

e|----------------------------------------------0-----------------0----------|
B|----------2-----------------2--------------1-----1-----------1-----1-------|
G|-------2-----2-----------2-----2--------2-----------2-----2-----------2----|
D|----4-----------4-----4-----------4--2-----------------2-------------------|
A|-------------------4-------------------------------------------------------|
E|-2-------------------------------------------------------------------------|

e|----------0-----------------0-----------------0--------0--------0----------|
B|-------3-----3-----------3-----3-----------2-----2--------2--------2-------|
G|----2-----------2-----2-----------2-----1-----------1--------1--------1----|
D|-3-----------------3-----------------2-------------------------------------|
A|---------------------------------------------------------------------------|
E|---------------------------------------------------------------------------|

Verse Lyrics:
When I dream, I see what's real. When I dream, I know what I do next
And it seems these feelings I feel, they're boring, they're boring me to death


Chorus: (1 single strum of each chord here)

A                 F
Woah I've seen it all
       A         C                           F
Flying by taking pictures in my mind to save talk


Verse 2:

A new guitar part comes in! Yay! Whilst the other guitar plays the other verse part.

   
e|---------------|------------------------------|----------------------------|-------------|
B|---------------|------------------------------|----------------------------|-------------|
G|---------------|------------------------------|----------------------------|-------------|
D|-11--------11--|10--------7--9--10--9--7--9---|14---12----7-------14--12---|7---9---11\7-|
A|---------------|------------------------------|----------------------------|-------------|
E|---------------|------------------------------|----------------------------|-------------|

I always think I'll carry on sensibly, but I never think much at all

e|---------------|------------------------------|----------------------------|-------------|
B|---------------|------------------------------|----------------------------|-------------|
G|---------------|------------------------------|----------------------------|-------------|
D|-11--------11--|10--------7--9--10--9--7--9---|14-----15-----14----12------|7---9---11\7-|
A|---------------|------------------------------|----------------------------|-------------|
E|---------------|------------------------------|----------------------------|-------------|

I didn't see I was standing alone in here waiting, waiting patiently



Chorus:

A                  F
Woah, I've seen it all
       A         C                           F
Flying by taking pictures in my mind to save talk

A                  F
Woah, I've seen it all
       A         C                           F
Flying by taking pictures in my mind to save talk


Solo: (Follows Chorus Chords)

   A                          A
e|--------------------------|---------------------------|
B|--------------------------|---------------------------|
G|--------------------------|---------------------------|
D|------5--7-5--------------|------5--7-5---------------|
A|-5--7---------7-5--7--7--7|-5--7---------7-5--7--7----|
E|--------------------------|------------------------8--|

   F                          F
e|--------------------------|---------------------------|
B|--------------------------|---------------------------|
G|--------------------------|---------------------------|
D|-10----------9------------|-12----------7-------------|
A|--------------------------|---------------------------|
E|--------------------------|---------------------------|

   A                          C
e|----------------------------|---------------------------|
B|----------------------------|---------------------------|
G|----------------------------|---------------------------|
D|------5--7-5----------------|------5--7-5---------------|
A|-5--7---------7-5--7--7b8r7-|-5--7---------7-5--7--7----|
E|----------------------------|------------------------8--|

   F                          F
e|--------------------------|---------------------------|
B|--------------------------|---------------------------|
G|--------------------------|---------------------------|
D|-10----------9------------|-12----------14------------|
A|--------------------------|---------------------------|
E|--------------------------|---------------------------|

   A                                       A
e|---------------------------------------|--------------------------------|
B|---------------------------------------|--------------------------------|
G|--------12--14-12----------------------|--------12--14-12---------------|
D|-12--14------------14-12--14--14b15r14-|-12--14------------14-12--14----|
A|---------------------------------------|-----------------------------12-|
E|---------------------------------------|--------------------------------|


   F                          F
   tr~         tr~            tr~         tr~
e|--------------------------|---------------------------|
B|-13----------12-----------|-15----------10------------|
G|--------------------------|---------------------------|
D|--------------------------|---------------------------|     Note tr~ = Tremelo Picking
A|--------------------------|---------------------------|
E|--------------------------|---------------------------|

   A                                       C
e|---------------------------------------|--------------------------------|
B|---------------------------------------|--------------------------------|
G|--------12--14-12----------------------|--------12--14-12---------------|
D|-12--14------------14-12--14--14b15r14-|-12--14------------14-12--14----|
A|---------------------------------------|-----------------------------12-|
E|---------------------------------------|--------------------------------|

   F                          F
   tr~         tr~            tr~         tr~
e|--------------------------|---------------------------|
B|-13----------12-----------|-15----------10------------|
G|--------------------------|---------------------------|
D|--------------------------|---------------------------|
A|--------------------------|---------------------------|
E|--------------------------|---------------------------|



A                 F
Woah I've seen it all
       A         C                           F
Flying by taking pictures in my mind to save talk

A                 F
Woah I've seen it all
       A         C                           F
Flying by taking pictures in my mind to save talk

A            F
I've seen it all
       A         C                           F
Flying by________________________________________


End Chords and picked notes are pretty simple but nice, Theres some counter melody notes
going on on another guitar but it's really difficult to figure that out. :-P

   A                                   F
e|--------------------------------------------------------------------------|
B|--------------------------------------------------------------------------|
G|----------6-----------------6-----------------2-----------------2---------|
D|-------7-----7-----------7-----7-----------3-----3-----------3-----3------|
A|----7-----------7-----7-----------7-----3-----------3-----3-----------3---|
E|-5-----------------5-----------------1-----------------1------------------|

   A                 C                 F
e|--------------------------------------------------------------------------|
B|--------------------------------------------------------------------------|
G|----------6-----------------9-----------------2--------2--------2---------|
D|-------7-----7-----------10----10----------3-----3--------3--------3------|
A|----7-----------7-----10----------10----3-----------3--------3--------3---|
E|-5-----------------8-----------------1------------------------------------|

Finshing on an

A



************************************

| /   slide up
| \   slide down
| h   hammer-on
| p   pull-off
| ~   vibrato
| +   harmonic
| x   Mute note
| b   Bend
| pb  Pre-bend
| br  Bend release
| pbr Pre-bend release
| brb Bend release bend
| tr~ Tremelo Picking

************************************
Tap to rate this tab
# A B C D E F G H I J K L M N O P Q R S T U V W X Y Z