Song name
# A B C D E F G H I J K L M N O P Q R S T U V W X Y Z

Caparezza - La Rivoluzione Del Sessintutto tab

Caparezz - La Rivoluzione del Sessintutto 

by gun88

E||---------------------------|----------------------------|
B||---------------------------|----------------------------|
G||---------------------------|-----------------3----------|
D||---------------------------|--3-----3--5--------5-3-----|
A||-----------1--3--1--3-4-5--|-----5--------5---------5-3-|
E||--3--1--3------------------|----------------------------|


   
------------------------|------------------------||
------------------------|------------------------||
------------------------|------------------------||
--5--3------------------|------------------------||
--------5--3--x----x----|--5--3--1---------------||
------------------------|-----------3--x----x----||

Tap to rate this tab
 
# A B C D E F G H I J K L M N O P Q R S T U V W X Y Z