Song name
# A B C D E F G H I J K L M N O P Q R S T U V W X Y Z

Caparezza - Annunciatemi Al Pubblico tab

|-----------------------------------------------------------------------|
|--------------------------------13-------------------------------------|
|-----12----------------------12----12----------------------------------|
|-10------10-12^13-12--9--10-------------10-12^13-12-9-10---10-12-12----|
|-----------------------------------------------------------------------|
|-----------------------------------------------------------------------|

|-------------------------------------------------------------------------|
|--------------------13-15-16-18--13----13-16-13-----18-13-16-15-13----13-|
|--------------12--------------------15----------15-----------------16----|
|-12-13-13--13------------------------------------------------------------|
|-------------------------------------------------------------------------|
|-------------------------------------------------------------------------|


tabbed by ear, standard tuning, if you find something wrong please comment the tab
Tap to rate this tab
 
# A B C D E F G H I J K L M N O P Q R S T U V W X Y Z