Song name
# A B C D E F G H I J K L M N O P Q R S T U V W X Y Z

Capdown - Civil Disobedients tab

Intro
e|------------------------------------------------------------------------|
b|------------------------------------------------------------------------|
G|------------------------------------------------------------------------|
D|-5-3-5-3-5--5-3-5-------------------------------------------------------|
A|-------------------3-1-3-1-3--3-1-3--5-4-5-4-5--5-4-5-------------------|
E|-------------------------------------------------------3-1-3-1-3--3-1-3-|


first Ska Riff
e|-3--3--3--3--3--3--2-2-2--3--3--3--3--3--3--4-4-4-|
b|-3--3--3--3--3--3--2-2-2--3--3--3--3--3--3--4-4-4-|
G|-4--4--4--4--4--4--3-3-3--4--4--4--4--4--4--3-3-3-|
D|--------------------------------------------------|
A|--------------------------------------------------|
E|--------------------------------------------------|

enjoy ppl
Tap to rate this tab
# A B C D E F G H I J K L M N O P Q R S T U V W X Y Z