Guitaretab - guitar tabs
Song name
# A B C D E F G H I J K L M N O P Q R S T U V W X Y Z

Capharnaum - Machines tab

Band: Capharnaum 
Album: Fractured 
Song: Machines 

Copyright (c) Earache Records, 2005 
Version 1.0, 4/12/2005 


Code: 
. - palm mute           / - slide up to 
\ - slide down to       x  Staccato 
h - hammer on           p - pull off 
, - slight palm mute    () - ghost note, sustained note 
" - tremolo note        <> - Trill 
L  left channel only   R  right channel only 
* - see comment 

Suffixes for bend 
f - full bend       h - half bend 
q - quarter bend    t - tap bend 
^ - Hold bend       r - release bend 
~ - vibrato bend 

Suffixes for harmonic 
ph - pinched harmonic   n  natural/artificial harmonic 

Tuning A D A D G B E 

Intro A (0:00) 
|--------------------------------------------------------------| 
|--------------------------------------------------------------| 
|-------2-3----------------------------------------------------| 
|---------------1-2-1-----------3h5p3-2-------2h3p2p0----------| 
|---0-2-----2-4-------4-2---------------5-3-----------3-2------| gtr 1 
|-2-----------------------6-4-6-------------5-------------6-5--| 
|-0------------------------------------------------------------| 
    . . . . . . . . . . . . . .       . . . .         . . . . 
|--------------------------------------------------------------| 
|--------------------------------------------------------------| 
|--------------------------------------------------------------| 
|--------------------------------------------------------------| 
|--------------------------------------------------------------| gtr 2 
|-2------------------------------------------------------------| 
|-0------------------------------------------------------------| 
    x 

Intro B (0:04) 
|--------------------------------------------------------------------------| 
|--------------------------------------------------------------------------| 
|-------2-3-------------------------------------------------------------6~-| 
|---------------1-2-1-----------3h5p3-2-------2h3p2p0---------------6-8----| 
|---0-2-----2-4-------4-2---------------5-3-----------3-2-------6-8--------| gtr 1 
|-2-----------------------6-4-6-------------5-------------6-5-6------------| 
|-0------------------------------------------------------------------------| 
    . . . . . . . . . . . . . .       . . . .         . . . . . . . . . . 
|--------------------------------------------------------------------------| 
|-----------------------------------------------------------------------4~-| 
|-------------------------------------------------------------------4-6----| 
|---------------------------------------------------------------4-6--------| 
|-------------------------------------------------------------4------------| gtr 2 
|-2------------------------------------------------------------------------| 
|-0------------------------------------------------------------------------| 
    x                                                         . . . . . . 


Riff 1a (0:07) 
|--------------------------------------------------------------| 
|--------------------------------------------------------------| 
|-------2-3----------------------------------------------------| 
|---------------1-2-1-----------3h5p3-2-------2h3p2p0----------| 
|---0-2-----2-4-------4-2---------------5-3-----------3-2------| 
|-2-----------------------6-4-6-------------5-------------6-5--| 
|-0------------------------------------------------------------| 
    . . . . . . . . . . . . . .       . . . .         . . . . 


Riff 1b (0:11) 
|--------------------------------------------------------------------------| 
|--------------------------------------------------------------------------| 
|-------2-3-------------------------------------------------------------6~-| 
|---------------1-2-1-----------3h5p3-2-------2h3p2p0---------------6-8----| 
|---0-2-----2-4-------4-2---------------5-3-----------3-2-------6-8--------| gtr 1 
|-2-----------------------6-4-6-------------5-------------6-5-6------------| 
|-0------------------------------------------------------------------------| 
    . . . . . . . . . . . . . .       . . . .         . . . . . . . . . . 
|--------------------------------------------------------------------------| 
|-----------------------------------------------------------------------4~-| 
|-------2-3---------------------------------------------------------4-6----| 
|---------------1-2-1-----------3h5p3-2-------2h3p2p0-----------4-6--------| 
|---0-2-----2-4-------4-2---------------5-3-----------3-2-----4------------| gtr 2 
|-2-----------------------6-4-6-------------5-------------6-5--------------| 
|-0------------------------------------------------------------------------| 
    . . . . . . . . . . . . . .       . . . .         . . . . . . . . . . 

Riff 1a x 1 (0:15) 
Riff 1b x 1 (0:19) 

Riff 2 (0:22) 
|-----------------------------------------------| 
|-----------------------------------------------| 
|-----------------------------------------------| 
|------------------------------------3-------2--| 
|-----------------2--------------------0-1-2----| 
|-----2-1---3-0-3-2------2-1---3-0-3------------| 
|-0-1-----0----------0-1-----0------------------| 
  . . . . . . . .    . . . . . . . . . . . . 

Riff 3a (0:35) 
|--------------------------------------------| 
|--------------------------------------------| 
|--------------------------------------------| 
|-------------------------------3<4----------| 
|-----------3-5<6-------------3-----6-5-3----| gtr 1 
|-0-1-5-6-5---------0-1-5-6-5-------------5--| 
|--------------------------------------------| 
  . . . . . .       . . . . . . . . . . . . 
[ Tab from: http://www.guitaretab.com/c/capharnaum/163395.html ]
|--------------------------------------------| 
|--------------------------------------------| 
|-------------------------------2<3----------| 
|--------------------------------------------| 
|-----------3-5<6-------------3-----6-5-3----| gtr 2 
|-0-1-5-6-5---------0-1-5-6-5-------------5--| 
|--------------------------------------------| 
  . . . . . .       . . . . . . . . . . . . 


Riff 3b (0:39) 
|----------------------------------------------| 
|----------------------------------------------| 
|-----------------------------------------5\4--| 
|-------------------------------3<4------------| 
|-----------3-5<6-------------3-----6-5-3------| gtr 1 
|-0-1-5-6-5---------0-1-5-6-5------------------| 
|----------------------------------------------| 
  . . . . . .       . . . . . . . . . . . 

|----------------------------------------------| 
|----------------------------------------------| 
|-------------------------------2<3-------5\4--| 
|----------------------------------------------| 
|-----------3-5<6-------------3-----6-5-3------| gtr 2 
|-0-1-5-6-5---------0-1-5-6-5------------------| 
|----------------------------------------------| 
  . . . . . .       . . . . . . . . . . . 

Riff 3a x 1 (0:42) 

Riff 3c (0:45) 
|-----------------------------------------------------------| 
|-----------------------------------------------------------| 
|-----------------------------------------5<6-----------3-6-| 
|-------------------------------3<4-----------4-------3-----| 
|-----------3-5<6-------------3-----6-5-3-------4-1-4-------| gtr 1 
|-0-1-5-6-5---------0-1-5-6-5-------------------------------| 
|-----------------------------------------------------------| 
  . . . . . .       . . . . . . . . . . .     . . . . . . . 

|-----------------------------------------------------------| 
|-----------------------------------------3<4-------------6-| 
|-------------------------------2<3-----------3---------6---| 
|-----------------------------------------------3-0-3-6-----| 
|-----------3-5<6-------------3-----6-5-3-------------------| gtr 2 
|-0-1-5-6-5---------0-1-5-6-5-------------------------------| 
|-----------------------------------------------------------| 
  . . . . . .       . . . . . . . . . . .     . . . . . . . 

Riff 3a x 1 (0:50) 
Riff 3b x 1 (0:53) 
Riff 3a x 1 (0:56) 
Riff 3c x 1 (1:00) 

Riff 4 (1:04) play 4 times 
                               [not on last time] 
|-----------------------------|---------------| 
|-----------------------------|---------------| 
|----------------3-6----------|-----------3-6-| 
|------4-------3--------------|-4-------3-----| 
|--------4-1-4----------------|---4-1-4-------| gtr 1 
|-3------------------3--2--2--|---------------| 
|-1------------------1--0--0--|---------------| 
       . . . . . . . .  .  .    . . . . . . . 
                               [not on last time] 
|-----------------------------|---------------| 
|------------------6----------|-------------6-| 
|------3---------6------------|-3---------6---| 
|--------3-0-3-6--------------|---3-0-3-6-----| 
|-----------------------------|---------------| gtr 2 
|-3------------------3--2--2--|---------------| 
|-1------------------1--0--0--|---------------| 
       . . . . . . . .  .  .   . . . . . . . 

Solo begins at (1:16) 

Riff 5a (1:16) 
|------------------------------------------------| 
|------------------------------------------------| 
|------------------------------------------------| 
|------------------------------------------------| 
|------------------------------------------------| gtr 1 
|-7-7-7-7-7-7-3-3-3-3-3-3-2-2-2-2-2-2------------| 
|-------------------------------------3---3-2-2--| 
  . . . . . . . . . . . . . . . . . . 

Riff 5b (1:19) 
|------------------------------------------------| 
|------------------------------------------------| 
|------------------------------------------------| 
|------------------------------------------------| 
|-------------3-3-3-3-3-3-2-2-2-2-2-2------------| gtr 1 
|-7-7-7-7-7-7-3-3-3-3-3-3-2-2-2-2-2-2-3---3-2-2--| 
|-------------------------------------3---3-2-2--| 
  . . . . . . . . . . . . . . . . . . 

Riff 5a x 1 (1:22) 
Riff 5b x 1 (1:25) 

Riff 6 (1:28) play 4 times 
|---------------------------------------------------| 
|---------------------------------------------------| 
|---------------------------------------------------| 
|-----2---------------------------------------------| 
|-0-2---2-0---0-2-5-2-0-------0---0-5-------5-7-0---| 
|-----------5-----------5-3-6---5-----5-3-6-------6-| 
|---------------------------------------------------| 
  . . . . . . . . . . . . . . . . . . . . . . . . . 

Riff 7a (1:36) 
|--------------------------------------| 
|--------------------------------------| 
|--------------------------------------| 
|-----2-------------------------222222-| 
|-0-2---2-0---0-2-5-2-0-------2--------| 
|-----------5-----------5-3-6----------| 
|--------------------------------------| 

Riff 7b (1:38) 
|------------------------------------| 
|------------------------------------| 
|------------------------------------| 
|-----2-------------------------2-h3-| 
|-0-2---2-0---0-2-5-2-0-------2------| 
|-----------5-----------5-3-6--------| 
|------------------------------------| 

Riff 7a x 1 (1:40) 
Riff 7b x 1 (1:42) 


Riff 8 (1:44) 
|----------------------------------------------------| 
|----------------------------------------------------| 
|------------------------2-2-----2-------------------| 
|-------------2--------3-----3-----3-----------------| gtr 1 
|-0---0-0-0-0-3------3---------------6-6-6-6---------| 
|-10-----------------------------------------6-6-6---| 
|----------------0-0-----------0-------------------7-| 
      . . . .    . . . .       .   . 

|----------------------------------------------------| 
|----------------------------------------------------| 
|----------------------------------------------------| 
|-------------2----------2-2-----2-------------------| gtr 2 
|-0---0-0-0-0-3------0-3-----------3-6-6-6-6---------| 
|-10-----------------------------------------6-6-6---| 
|----------------0-0---------0-0-------------------7-| 
      . . . .    . . . .     . .   . 

End 
|----| 
|----| 
|----| 
|----| 
|----| 
|-2--| 
|-0--| 
  x
Related for Machines tab