Song name
# A B C D E F G H I J K L M N O P Q R S T U V W X Y Z

Capisce - Time Crisis 4 tab

http://www.capiscemusic.com/

A lot of people have been asking for a tab of this song, so I decided to do it, 
and maybe put up a bass tab as well. Maybe I'll tab all the Capisce? songs I 
can(the next being Astronaut Love Triangle) when I'm not doing work or playing my Xbox.

Credit goes to Ian, the actual rhythm guitarist of Capisce?, for helping me tab out this song.

Andy - Lead Guitar(clean)
Ian - Rhythm Guitar(a bit of distortion)

Lead Guitar

Riff 1
|-------------------------------------------------------------------------|
|-------------------------------------------------------------------------|
|0-0-12-0-0-14-0-0-16-0-0-14-0-11-12~-0-0-12-0-0-14-0-0-16-0-0-14-0-11-12~|
|-------------------------------------------------------------------------|
|-------------------------------------------------------------------------|
|-------------------------------------------------------------------------|

Riff 2
|-----------------------------------------------------------------|
|-----------------------------------------------------------------|
|0-0-12-0-0-9-0-0-7-0-5-0-4-0-5-0-0-0-12-0-0-9-0-0-7-0-5-0-4-5-4-5|
|-----------------------------------------------------------------|
|-----------------------------------------------------------------|
|-----------------------------------------------------------------|

Riff 3
|-------------------------------------------------------------------------|
|-------------------------------------------------------------------------|
|0-0-12-0-0-14-0-0-16-0-0-17-0-0-16-0-0-0-17-0-0-16-0-0-17-0-16-0-14-0-16-|
|-------------------------------------------------------------------------|
|-------------------------------------------------------------------------|
|-------------------------------------------------------------------------|

|-------------------------------------------------------------------------|
|-------------------------------------------------------------------------|
|0-0-12-0-0-14-0-0-16-0-0-17-0-0-16-0-0-0-17-0-0-19-0-0-17-0-16-0-14-0-16/|
|-------------------------------------------------------------------------|
|-------------------------------------------------------------------------|
|-------------------------------------------------------------------------|(/=slide to next note)

|--------------------------------------------------------------|
|--------------------------------------------------------------|
|19x16times-17x8times-16x8times-19x16times-17x8times-16x8times/|
|--------------------------------------------------------------|
|--------------------------------------------------------------|
|--------------------------------------------------------------|
(fretxnumber of times picked)
|----------------------------------------------------------------------|
|----------------------------------------------------------------------|
|21x16times-19x8times-17x8times-19x8times-17x8times-16x8times-17x8times|
|----------------------------------------------------------------------|
|----------------------------------------------------------------------|
|----------------------------------------------------------------------|

Riff 4
|---------------------------------------------------------------------------|
|---------------------------------------------------------------------------|
|0-0-12-0-0-12-0-12-0-0-12-0-0-12-0-12-0-0-12-0-0-12-0-12-0-0-12-0-0-12-0-12|
|---------------------------------------------------------------------------|
|---------------------------------------------------------------------------|
|---------------------------------------------------------------------------|

Solo
|10-12------10-12-------12---10-12------10-12----15-14-12-|
|------12---------12-12------------12---------12----------|
|---------------------------------------------------------|
|---------------------------------------------------------|
|---------------------------------------------------------|
|---------------------------------------------------------|

|10-12------10-12-------12---10-12------10-12------12-10----10----|-10|
|------12---------12-12------------12---------12---------12----12-|-12|
|-----------------------------------------------------------------|---|
|-----------------------------------------------------------------|---|
|-----------------------------------------------------------------|---|
|-----------------------------------------------------------------|---|
                                                                  (End with this on second time)
Order:
0:00 Riff 1 x 3
0:18 Riff 2
0:24 Riff 1
0:30 Riff 2
0:35 Riff 1
0:41 Riff 2
0:47 Riff 3
1:11 Riff 1
1:17 Riff 2
1:23 Riff 1
1:29 Riff 2
1:35 Riff 1
1:41 Riff 2
1:47 Riff 3
2:10 Riff 1
2:16 Riff 2
2:22 Riff 4
2:34 Silent
2:46 Solo x 2
3:11 Silent

Rhythm Guitar(enter song with three loud muted strums)

Riff 1
|-------------------------------------------------|
|-------------------------------------------------|
|12-12-12-12-12-12-12-12-12-12-12-12-12-12-12-1414|
|-------------------------------------------------|
|-------------------------------------------------|
|-------------------------------------------------|

Riff 2
|-----------------------------------------------------------------|
|-----------------------------------------------------------------|
|-4-4-4-4-4-4-4-4-4-4-4-4-4-4-4-4-8-8-8-8-8-8-8-8-8-8-8-8-8-8-8-8-|
|-2-2-2-2-2-2-2-2-2-2-2-2-2-2-2-2-6-6-6-6-6-6-6-6-6-6-6-6-6-6-6-6-|
|-----------------------------------------------------------------|
|-3-3-3-3-3-3-3-3-3-3-3-3-3-3-3-3-7-7-7-7-7-7-7-7-7-7-7-7-7-7-7-7-|

Riff 3
|-----------------------------------------------------------------|-------------|
|----881010-----881010-----881010-----88------88------88------88--|-------------|
|--99---------99---------99---------99--99--99--99--99--99--99--99|--99-99-9-9-9|
|-----------------------------------------------------------------|-------------|
|-----------------------------------------------------------------|-------------|
|88---------88---------88---------88------77------77------77------|77-77-77-----|
(those are 8's, 9's, 10's and 7's)
                                (End with this)

Riff 4
|-------------------------------------------------|
|-------------------------------------------------|
|12x32times-9x32times-----------------------------|
|-------------------------------------------------|
|-------------------------------------------------|
|-------------------------------------------------|

Riff 5
|1414141414141414-1515151515151515-1414141414141414-1515151515151515|
|1212121212121212-1212121212121212-1212121212121212-1212121212121212|
|1212121212121212-1212121212121212-1212121212121212-1212121212121212|
|-------------------------------------------------------------------|
|-------------------------------------------------------------------|
|-------------------------------------------------------------------|


|1212121212121212-1414141414141414-1212121212121212-1414141414141414|
|1212121212121212-1212121212121212-1212121212121212-1212121212121212|
|1212121212121212-1212121212121212-1212121212121212-1212121212121212|
|-------------------------------------------------------------------|
|-------------------------------------------------------------------|
|-------------------------------------------------------------------|


|1515151515151515-1717171717171717-1515151515151515-1717171717171717|
|1212121212121212-1212121212121212-1212121212121212-1212121212121212|
|1212121212121212-1212121212121212-1212121212121212-1212121212121212|
|-------------------------------------------------------------------|
|-------------------------------------------------------------------|
|-------------------------------------------------------------------|


|1212121212121212-1414141414141414-1212121212121212-1414141412141214|-12-|
|1212121212121212-1212121212121212-1212121212121212-1212121212121212|-12-|
|1212121212121212-1212121212121212-1212121212121212-1212121212121212|-12-|
|-------------------------------------------------------------------|----|
|-------------------------------------------------------------------|----|
|-------------------------------------------------------------------|----|
                                                                    (End with this)

Order:
0:11 Riff 1
0:24 Riff 2 x 2
0:47 Riff 3 x 2
1:11 Riff 1
1:23 Riff 2 x 2
1:47 Riff 3 x 2
2:10 Riff 4 x 2
2:34 Riff 3
2:46 Riff 5
3:11 Silent
Tap to rate this tab
 
# A B C D E F G H I J K L M N O P Q R S T U V W X Y Z