Song name
# A B C D E F G H I J K L M N O P Q R S T U V W X Y Z

Capitaine Revolte - Jai Oublie tab

Help us improve GuitareTab! Take a short survey!
Capitaine Revolte is a punk rock band from quebec city. Visit their official
website for more info. http://www.capitainerevolte.com/

#----------------------------------PLEASE NOTE---------------------------------#
#This file is the author's own work and represents their interpretation of the #
#song. You may only use this file for private study, scholarship, or research. #
#------------------------------------------------------------------------------#

Author: Capitaine Révolte
Title: J'ai oublié


 Verse: Listen for timing and pattern

|--------------------------------------------------------------------||
|-------------------------------------------------------------------o||
|--------------------------------------------------------------------||
|---0---0---------------------------0---0----------------------------||
|-2---2-----0---0---2---2---2---2-2---2-----0---0---2---2---2---2---o||
|---------2---2---3---3---3---3-----------2---2---3---3---3---3------||


Prechorus: Listen for timing(kind of a ska rythm)

|-2----|
|-3----|
|-2----|
|------|
|------|
|------|

 Chorus: Repeat each chord several time

|------------|
|------------|
|-7---4------|
|-7-7-4-4----|
|-5-7-2-4----|
|---5---2----|

 Ending: Those are the chords used in the Ending,  find the timing and pattern

|------------------------------------|
|------------------------------------|
|-7---------7---------7-6-7-7-6-7----|
|-7-7-9-4-7-7-7-9-4-7-7-6-7-7-6-7----|
|-5-7-9-4-7-5-7-9-4-7-5-4-5-5-4-5----|
|---5-7-2-5---5-7-2-5----------------|
Related for Jai Oublie tab