Song name
# A B C D E F G H I J K L M N O P Q R S T U V W X Y Z

Capital Cities - Safe And Sound tab

Here is a version of the solo for this song played on the 1st, 2nd and 3rd frets instead 
of 12th, 13th and 15th


e|--0-----------------0-----------------------------------------------|
B|--------0-1-3--------------0-1-3------------------------------------|
G|-----2-----------------0-0------------------------------------------|
D|--------------------------------------------------------------------|
A|--------------------------------------------------------------------|
E|--------------------------------------------------------------------|

e|--0-----------------0-------3-1-0-----------------------------------|
B|---------0-1-3------------------------------------------------------|
G|-----2-----------------0-0------------------------------------------|
D|--------------------------------------------------------------------|
A|--------------------------------------------------------------------|
E|--------------------------------------------------------------------|
Tap to rate this tab
# A B C D E F G H I J K L M N O P Q R S T U V W X Y Z