Song name
# A B C D E F G H I J K L M N O P Q R S T U V W X Y Z

Capital Cities - Love Away tab

Tabbed by : FruitPursuit

This is a neat little solo and I thought it'd be easy enough for me to write my first tab. 

e|---------------------------------------------------------------|
B|---------------------------------------------------------------|
G|4/6--4-2---------------------------------------------2--2h4-4-4|
D|--------4---------2/4-2---2----------------------2/4--4--------|
A|------------------------4---2----2-4-2-0-----------------------|
E|-----------------------------------------2---------------------|

e|-----------------------9r7-5~-----------------2----------------|
B|----5--5h7-7-7~--------------------0/2--5-2-5---2~-------------|
G|4/6--6---------------------------------------------------------|
D|---------------------------------------------------------------|
A|---------------------------------------------------------------|
E|---------------------------------------------------------------|

e|-------------5-7----5-7----5--7---9~/12/14~--------------------|
B|0/2--5-2-5/7------7------7-------------------------------------|
G|---------------------------------------------------------------|
D|---------------------------------------------------------------|
A|---------------------------------------------------------------|
E|---------------------------------------------------------------|


| /  slide up
| \  slide down
| h  hammer-on
| p  pull-off
| ~  vibrato
| +  harmonic
| x  Mute note
Tap to rate this tab
# A B C D E F G H I J K L M N O P Q R S T U V W X Y Z