Capital Lights - Outrage tab

Piano/synth intro repeat
|--------------6-3--6-3-----------------------------------------------------|
|--6-6-6-6-6-4~---3~----6-6-------------------------------------------------|
|-5-5-5-5-5------------5-5--------------------------------------------------|
|---------------------------------------------------------------------------|
|---------------------------------------------------------------------------|
|---------------------------------------------------------------------------|

Guitars come in with totally awesome pick slide
|-----------------------------------------------------------------------------|
|-----------------------------------------------------------------------------|
|---33------------------------------------------------------------------------|
|11-11-3333-55-33-------------------------------------------------------------|2x
|11-11-3333-55-33-------------------------------------------------------------|
|11----3333-55-33-------------------------------------------------------------|
Saw there was no tab out for the intro synthesizer, so i went ahead a finished tabbing 
the guitar too. Enjoy, and please rate.
12STONESLOVER33
Tap to rate this tab
 
# A B C D E F G H I J K L M N O P Q R S T U V W X Y Z