Song name
# A B C D E F G H I J K L M N O P Q R S T U V W X Y Z

Capital Lights - Save The Last Dance tab

intro:
|---------------|
|------------7--|
|--6h8--8-6---8-|
|---------------|  repeat 12 times
|---------------|
|---------------|


Power chords for intro
|---------------|
|---------------|
|---------------|
|-8---6---4---6-|
|-6---4---2---4-|
|---------------|

 Verse
|------------------------|
|------------------------|
|----6--6--3-----3-----4-|   Repeat 4 times
|-4-----------6-----6----|
|------------------------|
|------------------------|

Solo
|-------------------------------------------------------------4------6--4---|
|-4-6-7-7-7-7-6-6-6-4-6-7-4-4-6-7-7-7-7-6-6-6-4-6-7-4-6-7-7-7---6-4-6-------|
|---------------------------------------------------------------------------|
|---------------------------------------------------------------------------|
|---------------------------------------------------------------------------|
|---------------------------------------------------------------------------|

|--------------------------------------------9-9-9-9-11-11-11-11------------|
|-7-6-7-6-7-6-4-7-7-7-7-9-9-9-9--11-11-11-11--------------------------------|
|---------------------------------------------------------------------------|
|---------------------------------------------------------------------------|
|---------------------------------------------------------------------------|
Tap to rate this tab
# A B C D E F G H I J K L M N O P Q R S T U V W X Y Z