Guitaretab - guitar tabs
Song name
# A B C D E F G H I J K L M N O P Q R S T U V W X Y Z

Capitalist Casualties - On The Take tab

e|----------------------------------------|
B|----------------------------------------|
G|----------------------------------------|
D|6-5-5-5-5-5-7-7-7-7-6-6-6-5-9-9-8-8-8-8-|
A|4-3-3-3-3-5-7-7-7-7-6-6-6-5-9-9-8-8-8-8-|
D|----------5-7-7-7-7-6-6-6-5-9-9-8-8-8-8-|

e|---------------------------------------------|
B|---------------------------------------------|
G|---------------------------------------------|
D|-8-8-8-9-9-9-6-6-6-7-7-7-6-6-6-6-6-7-6-6-6-6-|
A|-8-8-8-9-9-9-4-4-4-5-5-5-6-6-6-6-6-5-4-6-6-6-|
D|-8-8-8-9-9-9-------------6-6-6-6-6-----6-6-6-|

e|----------------------------------------|
B|----------------------------------------|
G|----------------------------------------|
D|6-5-5-5-5-5-7-7-7-7-6-6-6-5-9-9-8-8-8-8-|
A|4-3-3-3-3-5-7-7-7-7-6-6-6-5-9-9-8-8-8-8-|
D|----------5-7-7-7-7-6-6-6-5-9-9-8-8-8-8-|

e|---------------------------------------------|
B|---------------------------------------------|
G|---------------------------------------------|
D|-8-8-8-9-9-9-6-6-6-7-7-7-6-6-6-6-6-7-6-6-6-6-|
A|-8-8-8-9-9-9-4-4-4-5-5-5-6-6-6-6-6-5-4-6-6-6-|
D|-8-8-8-9-9-9-------------6-6-6-6-6-----6-6-6-|

[ Tab from: http://www.guitaretab.com/c/capitalist-casualties/67339.html ]
e|---------0---------0---------0---------0--|
B|---------0---------0---------0---------0--|
G|---------0---------0---------0---------0--|
D|------------------------------------------|
A|-5-5-5-5---5-5-5-5---4-4-4-4---4-4-4-4----|
D|-5-5-5-5---5-5-5-5---4-4-4-4---4-4-4-4----|

play this just first time
e|------------------------------------------------|
B|------------------------------------------------|
G|------------------------------------------------|
D|-5-5-5-5-5-5--------------4-4-4-4-4-4-4---------|
A|-5-5-5-5-5-5-5h6-4h5p4p0--4-4-4-4-4-4-4-4h5p4p0-|
D|-5-5-5-5-5-5--------------4-4-4-4-4-4-4---------|

2nd time
e|-------------------------------------------|
B|-------------------------------------------|
G|-------------------------------------------|
D|-5-5-5-5-5-5---------4-4-4-4-4-4-4-4-------|
A|-5-5-5-5-5-5-5h6p5p0-4-4-4-4-4-4-4-4-------|
D|-5-5-5-5-5-5---------4-4-4-4-4-4-4-4-------|

and this every other time
e|------------------------------------------|
B|------------------------------------------|
G|------------------------------------------|
D|-5-5-5-5-5-5---------4-4-4-4-4-4----------|
A|-5-5-5-5-5-5-5h6p5p0-4-4-4-4-4-4-4h5p4p0--|
D|-5-5-5-5-5-5---------4-4-4-4-4-4----------|

last bit
e|-----------------------------------------------|
B|-----------------------------------------------|
G|-----------------------------------------------|
D|-5-5-5-5-5---5-5-5-5-5--4-4-4-4-4-4--4-4-4-4-4-|
A|-5-5-5-5-5---5-5-5-5-5--4-4-4-4-4-4--4-4-4-4-4-|
D|-5-5-5-5-5---5-5-5-5-5--4-4-4-4-4-4--4-4-4-4-4-|

Have fun! Sam

Here's capitalsit casualties home page.
http://www.myspace.com/capitalistcasualties




Related for On The Take tab
×
On The Take