Song name
# A B C D E F G H I J K L M N O P Q R S T U V W X Y Z

Capn Jazz - Basils Kite tab

ok, i reckon that i am the second person to ever tab a Cap'n Jazz song, the first 
being dittohead123, but i think this is a pretty accurate tab of Basil's Kite i hope you enjoy 
:D

by the way, Cap'n Jazz kick arse and this song is in my opinion one of their best 
and lyrically

tabbed by: atdi4eva

standard tuning (Eadgbe)

(rhythm is interpreted freely)

(NOTE!!: at the start of the song there is an extra bar almost like an annicrucis, so 
more like x9 rather than x8)

intro x 8 with just guitar by itself

e[-----------------]
B[--9-9-9-9-9-9-9-9]
G[--9-9-9-9-9-9-9-9]
D[--9-9-9-9-9-9-9-9]
A[--7-7-7-7-7-7-7-7]
E[-----------------]

then, the drums kick in for the verse

verse x 8

(when i fly...)
e[------------------------------------------------------------------]
B[--9-9-----9-9-----9-9-9-9-9-9-9-9---------------------------------]
G[--9-9-9-9-9-9-9-9-9-9-9-9-9-9-9-9---------------------------------]
D[------9-9-----9-9------------------5-5-5-5-5-5-5-5-5-5-5-5-5-5-5-5]
A[--7-7-7-7-7-7-7-7-7-7-7-7-7-7-7-7--5-5-5-5-5-5-5-5-5-5-5-5-5-5-5-5]
E[-----------------------------------7-7-7-7-7-7-7-7-7-7-7-7-7-7-7-7] x2

bridge

e[--|-----------------]
B[--|----9--------9---]
G[5-|-----9---------9-]
D[5-|-----------------]
A[7-|---------7------7]
E[--|-----------------]

e[-------------------------------]
B[-------------------------------]
G[-------------------------------]
D[5-5-5-5-5-5-5-5-5-5-5-5-5-5-5-5]
A[5-5-5-5-5-5-5-5-5-5-5-5-5-5-5-5]
E[7-7-7-7-7-7-7-7-7-7-7-7-7-7-7-7]

Chorus

e[]
B[-------------------]
G[--9-9--------------]
D[--9-9-9-9-11--7----]
A[--7-7-9-9-11--7----]
E[------7-7-9---5----] x 2

then straight from the chorus into...

post-chorus
e[----------]
B[--9--9--9-]
G[---9---9-9]
D[----------]
A[----------]
E[----------]

Then it goes back to the bridge, which leads into the chorus for another two then after that

...the build up...in the meantime play the post-chorus again but very soft, he sings a 
words here it goes for about 8 or 6 im not sure. but still then the trumpet comes in 
keep playing the post chorus, but keep building it up and he yells!!!

THEN THE OUTRO!

(i cant fly if he can't fly...)
e[-----------------------------------------------------------------]
B[--9-9-9-9-9-9-9-9-9-9-9-9-9-9-9-9--------------------------------]
G[--9-9-9-9-9-9-9-9-9-9-9-9-9-9-9-9--------------------------------]
D[--9-9-9-9-9-9-9-9-9-9-9-9-9-9-9-9-9-9-9-9-9-9-9-9-9-9-9-9-9-9-9-9]
A[--7-7-7-7-7-7-7-7-7-7-7-7-7-7-7-7-9-9-9-9-9-9-9-9-9-9-9-9-9-9-9-9]
E[----------------------------------7-7-7-7-7-7-7-7-7-7-7-7-7-7-7-7]

(i cant flyyyyyyyyyyyyyy.....)

end
e[--]
B[--]
G[9-]
D[9-]
A[7-]
E[--]

so there you go! the second ever Cap'n Jazz song tabbed, please enjoy
Tap to rate this tab
 
# A B C D E F G H I J K L M N O P Q R S T U V W X Y Z